ISO-10303-21;
HEADER;
/* Generated by software containing ST-Developer
 * from STEP Tools, Inc. (www.steptools.com) 
 */

FILE_DESCRIPTION(
/* description */ (''),
/* implementation_level */ '2;1');

FILE_NAME(
/* name */ 
'W:\\AUTOCAD\\AutoCad - Projects\\Numbered\\7ERWWW\\7ERWWW\\7ERWWW-4X3.
stp',
/* time_stamp */ '2021-09-01T15:04:07-04:00',
/* author */ ('rick'),
/* organization */ (''),
/* preprocessor_version */ 'ST-DEVELOPER v18',
/* originating_system */ 'Autodesk Inventor 2020',
/* authorisation */ '');

FILE_SCHEMA (('AUTOMOTIVE_DESIGN { 1 0 10303 214 3 1 1 }'));
ENDSEC;

DATA;
#10=MECHANICAL_DESIGN_GEOMETRIC_PRESENTATION_REPRESENTATION('',(#13),#394);
#11=SHAPE_REPRESENTATION_RELATIONSHIP('SRR','None',#404,#12);
#12=ADVANCED_BREP_SHAPE_REPRESENTATION('',(#14),#393);
#13=STYLED_ITEM('',(#413),#14);
#14=MANIFOLD_SOLID_BREP('Solid1',#137);
#15=FACE_BOUND('',#40,.T.);
#16=FACE_BOUND('',#42,.T.);
#17=FACE_BOUND('',#44,.T.);
#18=FACE_BOUND('',#46,.T.);
#19=FACE_BOUND('',#48,.T.);
#20=B_SPLINE_CURVE_WITH_KNOTS('',3,(#220,#221,#222,#223,#224,#225,#226,
#227,#228,#229,#230,#231,#232,#233,#234,#235,#236,#237,#238,#239,#240,#241,
#242,#243),.UNSPECIFIED.,.F.,.F.,(4,2,2,2,2,2,2,2,2,2,2,4),(1.08214048876972,
1.37276256354173,1.66338463831373,2.24462878785774,2.82587293740175,3.40711708694576,
4.56960538603378,5.7320936851218,6.46101896179029,7.18994423845877,7.91886951512726,
8.35323591864111),.UNSPECIFIED.);
#21=B_SPLINE_CURVE_WITH_KNOTS('',3,(#244,#245,#246,#247,#248,#249,#250,
#251,#252,#253,#254,#255,#256,#257,#258,#259,#260,#261,#262,#263,#264,#265,
#266,#267,#268,#269,#270,#271,#272,#273,#274,#275,#276,#277,#278,#279,#280,
#281,#282,#283,#284,#285,#286,#287,#288,#289,#290,#291,#292,#293,#294,#295,
#296,#297,#298,#299,#300,#301),.UNSPECIFIED.,.F.,.F.,(4,2,2,2,2,2,2,2,2,
2,2,2,2,2,2,2,2,2,2,2,2,2,2,2,2,2,2,2,4),(8.35323591864111,8.64779479179575,
9.29772250148714,9.94765021117853,10.5975779208699,11.2475056305613,11.9182847373798,
12.5890638441983,13.2598429510168,13.9306220578353,14.6014011646538,15.2721802714723,
15.9429593782908,16.6137384851093,17.2636661948007,17.9135939044921,18.5635216141835,
19.2134493238749,19.9423746005433,20.6712998772118,21.4002251538803,22.1291504305488,
23.2916387296368,24.4541270287248,25.0353711782688,25.6166153278129,26.1978594773569,
26.4884815521289,26.7791036269009),.UNSPECIFIED.);
#22=B_SPLINE_CURVE_WITH_KNOTS('',3,(#305,#306,#307,#308,#309,#310,#311,
#312,#313,#314,#315,#316,#317,#318,#319,#320,#321,#322,#323,#324,#325,#326,
#327,#328,#329,#330,#331,#332,#333,#334,#335,#336,#337,#338,#339,#340,#341,
#342,#343,#344,#345,#346,#347,#348,#349,#350,#351,#352,#353,#354),
 .UNSPECIFIED.,.F.,.F.,(4,2,2,2,2,2,2,2,2,2,2,2,2,2,2,2,2,2,2,2,2,2,2,2,
4),(0.,1.11905826550476,2.23811653100952,3.35717479651429,4.47623306201905,
5.23392989460761,5.99162672719617,6.74932355978473,7.5070203923733,8.22430740396715,
8.941594415561,9.65888142715486,10.3761684387487,11.1194051291959,11.8626418196431,
12.6058785100902,13.3491152005374,14.0923518909846,14.8355885814318,15.5788252718789,
16.3220619623261,17.03934897392,17.7566359855138,18.4739229971077,19.1912100087015),
 .UNSPECIFIED.);
#23=B_SPLINE_CURVE_WITH_KNOTS('',3,(#355,#356,#357,#358,#359,#360,#361,
#362,#363,#364,#365,#366,#367,#368,#369,#370,#371,#372),.UNSPECIFIED.,.F.,
 .F.,(4,2,2,2,2,2,2,2,4),(19.1912100087015,19.9489068412901,20.7066036738787,
21.4643005064672,22.2219973390558,23.3410556045605,24.4601138700653,25.5791721355701,
26.6982304010748),.UNSPECIFIED.);
#24=CYLINDRICAL_SURFACE('',#159,1.435);
#25=CYLINDRICAL_SURFACE('',#161,1.5);
#26=CYLINDRICAL_SURFACE('',#164,1.917);
#27=CYLINDRICAL_SURFACE('',#167,2.);
#28=FACE_OUTER_BOUND('',#36,.T.);
#29=FACE_OUTER_BOUND('',#37,.T.);
#30=FACE_OUTER_BOUND('',#38,.T.);
#31=FACE_OUTER_BOUND('',#39,.T.);
#32=FACE_OUTER_BOUND('',#41,.T.);
#33=FACE_OUTER_BOUND('',#43,.T.);
#34=FACE_OUTER_BOUND('',#45,.T.);
#35=FACE_OUTER_BOUND('',#47,.T.);
#36=EDGE_LOOP('',(#93,#94));
#37=EDGE_LOOP('',(#95,#96,#97,#98,#99,#100));
#38=EDGE_LOOP('',(#101,#102,#103,#104,#105));
#39=EDGE_LOOP('',(#106));
#40=EDGE_LOOP('',(#107));
#41=EDGE_LOOP('',(#108,#109,#110,#111));
#42=EDGE_LOOP('',(#112,#113,#114));
#43=EDGE_LOOP('',(#115,#116,#117,#118));
#44=EDGE_LOOP('',(#119,#120));
#45=EDGE_LOOP('',(#121));
#46=EDGE_LOOP('',(#122));
#47=EDGE_LOOP('',(#123));
#48=EDGE_LOOP('',(#124));
#49=CIRCLE('',#158,1.435);
#50=CIRCLE('',#160,1.435);
#51=CIRCLE('',#162,1.5);
#52=CIRCLE('',#165,1.917);
#53=CIRCLE('',#166,1.917);
#54=CIRCLE('',#168,2.);
#55=CIRCLE('',#169,2.);
#56=LINE('',#213,#61);
#57=LINE('',#219,#62);
#58=LINE('',#374,#63);
#59=LINE('',#381,#64);
#60=LINE('',#387,#65);
#61=VECTOR('',#176,0.393700787401575);
#62=VECTOR('',#183,1.435);
#63=VECTOR('',#186,1.5);
#64=VECTOR('',#195,1.917);
#65=VECTOR('',#202,2.);
#66=VERTEX_POINT('',#211);
#67=VERTEX_POINT('',#212);
#68=VERTEX_POINT('',#216);
#69=VERTEX_POINT('',#218);
#70=VERTEX_POINT('',#303);
#71=VERTEX_POINT('',#304);
#72=VERTEX_POINT('',#373);
#73=VERTEX_POINT('',#378);
#74=VERTEX_POINT('',#380);
#75=VERTEX_POINT('',#384);
#76=VERTEX_POINT('',#386);
#77=EDGE_CURVE('',#66,#67,#56,.T.);
#78=EDGE_CURVE('',#67,#66,#49,.T.);
#79=EDGE_CURVE('',#68,#68,#50,.T.);
#80=EDGE_CURVE('',#68,#69,#57,.T.);
#81=EDGE_CURVE('',#67,#69,#20,.T.);
#82=EDGE_CURVE('',#69,#66,#21,.T.);
#83=EDGE_CURVE('',#70,#71,#22,.T.);
#84=EDGE_CURVE('',#71,#70,#23,.T.);
#85=EDGE_CURVE('',#71,#72,#58,.T.);
#86=EDGE_CURVE('',#72,#72,#51,.T.);
#87=EDGE_CURVE('',#73,#73,#52,.T.);
#88=EDGE_CURVE('',#73,#74,#59,.T.);
#89=EDGE_CURVE('',#74,#74,#53,.T.);
#90=EDGE_CURVE('',#75,#75,#54,.T.);
#91=EDGE_CURVE('',#75,#76,#60,.T.);
#92=EDGE_CURVE('',#76,#76,#55,.T.);
#93=ORIENTED_EDGE('',*,*,#77,.F.);
#94=ORIENTED_EDGE('',*,*,#78,.F.);
#95=ORIENTED_EDGE('',*,*,#79,.F.);
#96=ORIENTED_EDGE('',*,*,#80,.T.);
#97=ORIENTED_EDGE('',*,*,#81,.F.);
#98=ORIENTED_EDGE('',*,*,#78,.T.);
#99=ORIENTED_EDGE('',*,*,#82,.F.);
#100=ORIENTED_EDGE('',*,*,#80,.F.);
#101=ORIENTED_EDGE('',*,*,#83,.F.);
#102=ORIENTED_EDGE('',*,*,#84,.F.);
#103=ORIENTED_EDGE('',*,*,#85,.T.);
#104=ORIENTED_EDGE('',*,*,#86,.T.);
#105=ORIENTED_EDGE('',*,*,#85,.F.);
#106=ORIENTED_EDGE('',*,*,#86,.F.);
#107=ORIENTED_EDGE('',*,*,#79,.T.);
#108=ORIENTED_EDGE('',*,*,#87,.F.);
#109=ORIENTED_EDGE('',*,*,#88,.T.);
#110=ORIENTED_EDGE('',*,*,#89,.F.);
#111=ORIENTED_EDGE('',*,*,#88,.F.);
#112=ORIENTED_EDGE('',*,*,#81,.T.);
#113=ORIENTED_EDGE('',*,*,#82,.T.);
#114=ORIENTED_EDGE('',*,*,#77,.T.);
#115=ORIENTED_EDGE('',*,*,#90,.F.);
#116=ORIENTED_EDGE('',*,*,#91,.T.);
#117=ORIENTED_EDGE('',*,*,#92,.T.);
#118=ORIENTED_EDGE('',*,*,#91,.F.);
#119=ORIENTED_EDGE('',*,*,#83,.T.);
#120=ORIENTED_EDGE('',*,*,#84,.T.);
#121=ORIENTED_EDGE('',*,*,#92,.F.);
#122=ORIENTED_EDGE('',*,*,#87,.T.);
#123=ORIENTED_EDGE('',*,*,#90,.T.);
#124=ORIENTED_EDGE('',*,*,#89,.T.);
#125=PLANE('',#157);
#126=PLANE('',#163);
#127=PLANE('',#170);
#128=PLANE('',#171);
#129=ADVANCED_FACE('',(#28),#125,.T.);
#130=ADVANCED_FACE('',(#29),#24,.F.);
#131=ADVANCED_FACE('',(#30),#25,.T.);
#132=ADVANCED_FACE('',(#31,#15),#126,.T.);
#133=ADVANCED_FACE('',(#32,#16),#26,.F.);
#134=ADVANCED_FACE('',(#33,#17),#27,.T.);
#135=ADVANCED_FACE('',(#34,#18),#127,.T.);
#136=ADVANCED_FACE('',(#35,#19),#128,.F.);
#137=CLOSED_SHELL('',(#129,#130,#131,#132,#133,#134,#135,#136));
#138=DERIVED_UNIT_ELEMENT(#140,1.);
#139=DERIVED_UNIT_ELEMENT(#398,3.);
#140=(
MASS_UNIT()
NAMED_UNIT(*)
SI_UNIT($,.GRAM.)
);
#141=DERIVED_UNIT((#138,#139));
#142=MEASURE_REPRESENTATION_ITEM('density measure',
POSITIVE_RATIO_MEASURE(1.),#141);
#143=PROPERTY_DEFINITION_REPRESENTATION(#148,#145);
#144=PROPERTY_DEFINITION_REPRESENTATION(#149,#146);
#145=REPRESENTATION('material name',(#147),#393);
#146=REPRESENTATION('density',(#142),#393);
#147=DESCRIPTIVE_REPRESENTATION_ITEM('Generic','Generic');
#148=PROPERTY_DEFINITION('material property','material name',#406);
#149=PROPERTY_DEFINITION('material property','density of part',#406);
#150=DATE_TIME_ROLE('creation_date');
#151=APPLIED_DATE_AND_TIME_ASSIGNMENT(#152,#150,(#406));
#152=DATE_AND_TIME(#153,#154);
#153=CALENDAR_DATE(2012,29,6);
#154=LOCAL_TIME(12,39,31.,#155);
#155=COORDINATED_UNIVERSAL_TIME_OFFSET(0,0,.BEHIND.);
#156=AXIS2_PLACEMENT_3D('placement',#209,#172,#173);
#157=AXIS2_PLACEMENT_3D('',#210,#174,#175);
#158=AXIS2_PLACEMENT_3D('',#214,#177,#178);
#159=AXIS2_PLACEMENT_3D('',#215,#179,#180);
#160=AXIS2_PLACEMENT_3D('',#217,#181,#182);
#161=AXIS2_PLACEMENT_3D('',#302,#184,#185);
#162=AXIS2_PLACEMENT_3D('',#375,#187,#188);
#163=AXIS2_PLACEMENT_3D('',#376,#189,#190);
#164=AXIS2_PLACEMENT_3D('',#377,#191,#192);
#165=AXIS2_PLACEMENT_3D('',#379,#193,#194);
#166=AXIS2_PLACEMENT_3D('',#382,#196,#197);
#167=AXIS2_PLACEMENT_3D('',#383,#198,#199);
#168=AXIS2_PLACEMENT_3D('',#385,#200,#201);
#169=AXIS2_PLACEMENT_3D('',#388,#203,#204);
#170=AXIS2_PLACEMENT_3D('',#389,#205,#206);
#171=AXIS2_PLACEMENT_3D('',#390,#207,#208);
#172=DIRECTION('axis',(0.,0.,1.));
#173=DIRECTION('refdir',(1.,0.,0.));
#174=DIRECTION('center_axis',(0.,0.,1.));
#175=DIRECTION('ref_axis',(1.,0.,0.));
#176=DIRECTION('',(1.,0.,0.));
#177=DIRECTION('center_axis',(0.,0.,-1.));
#178=DIRECTION('ref_axis',(-1.,0.,0.));
#179=DIRECTION('center_axis',(0.,0.,-1.));
#180=DIRECTION('ref_axis',(-1.,0.,0.));
#181=DIRECTION('center_axis',(0.,0.,-1.));
#182=DIRECTION('ref_axis',(-1.,0.,0.));
#183=DIRECTION('',(0.,0.,-1.));
#184=DIRECTION('center_axis',(0.,0.,-1.));
#185=DIRECTION('ref_axis',(-1.,0.,0.));
#186=DIRECTION('',(0.,0.,1.));
#187=DIRECTION('center_axis',(0.,0.,-1.));
#188=DIRECTION('ref_axis',(-1.,0.,0.));
#189=DIRECTION('center_axis',(0.,0.,1.));
#190=DIRECTION('ref_axis',(1.,0.,0.));
#191=DIRECTION('center_axis',(-1.,0.,0.));
#192=DIRECTION('ref_axis',(0.,-1.,0.));
#193=DIRECTION('center_axis',(-1.,0.,0.));
#194=DIRECTION('ref_axis',(0.,-1.,0.));
#195=DIRECTION('',(-1.,0.,0.));
#196=DIRECTION('center_axis',(1.,0.,0.));
#197=DIRECTION('ref_axis',(0.,-1.,0.));
#198=DIRECTION('center_axis',(-1.,0.,0.));
#199=DIRECTION('ref_axis',(0.,-1.,0.));
#200=DIRECTION('center_axis',(-1.,0.,0.));
#201=DIRECTION('ref_axis',(0.,-1.,0.));
#202=DIRECTION('',(1.,0.,0.));
#203=DIRECTION('center_axis',(-1.,0.,0.));
#204=DIRECTION('ref_axis',(0.,-1.,0.));
#205=DIRECTION('center_axis',(1.,0.,0.));
#206=DIRECTION('ref_axis',(0.,0.,-1.));
#207=DIRECTION('center_axis',(1.,0.,0.));
#208=DIRECTION('ref_axis',(0.,0.,-1.));
#209=CARTESIAN_POINT('',(0.,0.,0.));
#210=CARTESIAN_POINT('Origin',(-7.86019613015368E-17,-0.5,1.3987061727561E-15));
#211=CARTESIAN_POINT('',(-0.226574491061989,-1.917,3.49676543189026E-16));
#212=CARTESIAN_POINT('',(0.226574491061989,-1.917,3.49676543189026E-16));
#213=CARTESIAN_POINT('',(3.4375,-1.917,1.3987061727561E-15));
#214=CARTESIAN_POINT('Origin',(0.,-0.5,3.49676543189026E-16));
#215=CARTESIAN_POINT('Origin',(0.,-0.5,3.094));
#216=CARTESIAN_POINT('',(1.435,-0.5,3.094));
#217=CARTESIAN_POINT('Origin',(0.,-0.5,3.094));
#218=CARTESIAN_POINT('',(1.435,-0.499999999999899,1.85064556304015));
#219=CARTESIAN_POINT('',(1.435,-0.5,3.094));
#220=CARTESIAN_POINT('Ctrl Pts',(0.22657449106199,-1.917,-3.3328545522704E-16));
#221=CARTESIAN_POINT('Ctrl Pts',(0.22657449106199,-1.917,0.0381393798913389));
#222=CARTESIAN_POINT('Ctrl Pts',(0.233516369753036,-1.915909328499,0.0721093723087946));
#223=CARTESIAN_POINT('Ctrl Pts',(0.253627137519135,-1.91244552959851,0.135869185435318));
#224=CARTESIAN_POINT('Ctrl Pts',(0.266842186553098,-1.91005269159869,0.165643364995294));
#225=CARTESIAN_POINT('Ctrl Pts',(0.311227078693205,-1.90116807906899,0.252691840900256));
#226=CARTESIAN_POINT('Ctrl Pts',(0.346805124759164,-1.89302866640954,0.307415762546076));
#227=CARTESIAN_POINT('Ctrl Pts',(0.423331128547688,-1.87171185511187,0.418039133098509));
#228=CARTESIAN_POINT('Ctrl Pts',(0.464221635259018,-1.85858549134373,0.473155144748812));
#229=CARTESIAN_POINT('Ctrl Pts',(0.548561727655406,-1.8267766555191,0.58404012882679));
#230=CARTESIAN_POINT('Ctrl Pts',(0.592064620791312,-1.80809335144906,0.639768306304623));
#231=CARTESIAN_POINT('Ctrl Pts',(0.724451014764297,-1.74261445874298,0.807866345612747));
#232=CARTESIAN_POINT('Ctrl Pts',(0.814506416413541,-1.68655244214892,0.92030689555415));
#233=CARTESIAN_POINT('Ctrl Pts',(0.985853939080018,-1.54853202837274,1.13730931467301));
#234=CARTESIAN_POINT('Ctrl Pts',(1.06721146605905,-1.46658103104838,1.24182423758924));
#235=CARTESIAN_POINT('Ctrl Pts',(1.18426149142066,-1.31378862609399,1.39855794158935));
#236=CARTESIAN_POINT('Ctrl Pts',(1.22798536848312,-1.24712701449613,1.45883349377154));
#237=CARTESIAN_POINT('Ctrl Pts',(1.30610033725883,-1.10020725581482,1.57259815207235));
#238=CARTESIAN_POINT('Ctrl Pts',(1.34047700878486,-1.01993585832747,1.62608004661436));
#239=CARTESIAN_POINT('Ctrl Pts',(1.39463019300225,-0.849597691762628,1.72121741627838));
#240=CARTESIAN_POINT('Ctrl Pts',(1.4144322404114,-0.759367880047508,1.7629448294363));
#241=CARTESIAN_POINT('Ctrl Pts',(1.43171181202965,-0.611818116011814,1.81769659849491));
#242=CARTESIAN_POINT('Ctrl Pts',(1.435,-0.555939299937467,1.83553210721295));
#243=CARTESIAN_POINT('Ctrl Pts',(1.435,-0.499999999999799,1.85064556304015));
#244=CARTESIAN_POINT('Ctrl Pts',(1.435,-0.499999999999798,1.85064556304015));
#245=CARTESIAN_POINT('Ctrl Pts',(1.435,-0.462065627034018,1.86089451986996));
#246=CARTESIAN_POINT('Ctrl Pts',(1.43349183108566,-0.424104501299654,1.86989562981782));
#247=CARTESIAN_POINT('Ctrl Pts',(1.4238759966393,-0.303065457087304,1.8948011320578));
#248=CARTESIAN_POINT('Ctrl Pts',(1.4095758230751,-0.21687581896322,1.90662248171091));
#249=CARTESIAN_POINT('Ctrl Pts',(1.36408264783071,-0.0457513535116363,1.91837202394238));
#250=CARTESIAN_POINT('Ctrl Pts',(1.33288891797619,0.0391818755024203,1.91832066653015));
#251=CARTESIAN_POINT('Ctrl Pts',(1.2551580009817,0.201347505557378,1.90812698329429));
#252=CARTESIAN_POINT('Ctrl Pts',(1.20854152354432,0.278763844900596,1.89800723300734));
#253=CARTESIAN_POINT('Ctrl Pts',(1.10377359247305,0.421265214920893,1.8715438431031));
#254=CARTESIAN_POINT('Ctrl Pts',(1.045617552127,0.486354819952462,1.85524301208908));
#255=CARTESIAN_POINT('Ctrl Pts',(0.922075279579742,0.602925465608325,1.82076408025619));
#256=CARTESIAN_POINT('Ctrl Pts',(0.8518586599399,0.658330328528834,1.80118116194759));
#257=CARTESIAN_POINT('Ctrl Pts',(0.699806047318513,0.756050883344854,1.76239594364431));
#258=CARTESIAN_POINT('Ctrl Pts',(0.617965850465035,0.798381280857413,1.74324719565462));
#259=CARTESIAN_POINT('Ctrl Pts',(0.447244930877222,0.866618905131156,1.71034953539066));
#260=CARTESIAN_POINT('Ctrl Pts',(0.358211401172347,0.892575463876637,1.69663648968034));
#261=CARTESIAN_POINT('Ctrl Pts',(0.17860672693531,0.926773095158763,1.6782008131738));
#262=CARTESIAN_POINT('Ctrl Pts',(0.0880287541756557,0.935,1.67351844925594));
#263=CARTESIAN_POINT('Ctrl Pts',(-0.0880287541756557,0.935,1.67351844925594));
#264=CARTESIAN_POINT('Ctrl Pts',(-0.17860672693531,0.926773095158763,1.6782008131738));
#265=CARTESIAN_POINT('Ctrl Pts',(-0.358211401172347,0.892575463876637,1.69663648968034));
#266=CARTESIAN_POINT('Ctrl Pts',(-0.447244930877222,0.866618905131156,1.71034953539066));
#267=CARTESIAN_POINT('Ctrl Pts',(-0.617965850465035,0.798381280857413,1.74324719565462));
#268=CARTESIAN_POINT('Ctrl Pts',(-0.699806047318513,0.756050883344854,1.76239594364431));
#269=CARTESIAN_POINT('Ctrl Pts',(-0.8518586599399,0.658330328528834,1.80118116194759));
#270=CARTESIAN_POINT('Ctrl Pts',(-0.922075279579742,0.602925465608325,1.82076408025619));
#271=CARTESIAN_POINT('Ctrl Pts',(-1.045617552127,0.486354819952463,1.85524301208908));
#272=CARTESIAN_POINT('Ctrl Pts',(-1.10377359247305,0.421265214920894,1.8715438431031));
#273=CARTESIAN_POINT('Ctrl Pts',(-1.20854152354432,0.278763844900597,1.89800723300734));
#274=CARTESIAN_POINT('Ctrl Pts',(-1.2551580009817,0.201347505557378,1.90812698329429));
#275=CARTESIAN_POINT('Ctrl Pts',(-1.33288891797619,0.0391818755024202,1.91832066653015));
#276=CARTESIAN_POINT('Ctrl Pts',(-1.36408264783071,-0.0457513535116365,
1.91837202394238));
#277=CARTESIAN_POINT('Ctrl Pts',(-1.4095758230751,-0.21687581896322,1.90662248171091));
#278=CARTESIAN_POINT('Ctrl Pts',(-1.42387599663929,-0.303065457087305,1.8948011320578));
#279=CARTESIAN_POINT('Ctrl Pts',(-1.43791412304948,-0.47976997635685,1.8584416678112));
#280=CARTESIAN_POINT('Ctrl Pts',(-1.43608719890053,-0.574456813623942,1.83156037803694));
#281=CARTESIAN_POINT('Ctrl Pts',(-1.4144322404114,-0.759367880047507,1.7629448294363));
#282=CARTESIAN_POINT('Ctrl Pts',(-1.39463019300225,-0.849597691762628,1.72121741627838));
#283=CARTESIAN_POINT('Ctrl Pts',(-1.34047700878486,-1.01993585832747,1.62608004661436));
#284=CARTESIAN_POINT('Ctrl Pts',(-1.30610033725883,-1.10020725581482,1.57259815207235));
#285=CARTESIAN_POINT('Ctrl Pts',(-1.22798536848312,-1.24712701449613,1.45883349377154));
#286=CARTESIAN_POINT('Ctrl Pts',(-1.18426149142066,-1.31378862609398,1.39855794158935));
#287=CARTESIAN_POINT('Ctrl Pts',(-1.06721146605905,-1.46658103104838,1.24182423758924));
#288=CARTESIAN_POINT('Ctrl Pts',(-0.985853939080018,-1.54853202837274,1.13730931467301));
#289=CARTESIAN_POINT('Ctrl Pts',(-0.814506416413542,-1.68655244214892,0.920306895554151));
#290=CARTESIAN_POINT('Ctrl Pts',(-0.724451014764298,-1.74261445874298,0.807866345612748));
#291=CARTESIAN_POINT('Ctrl Pts',(-0.592064620791312,-1.80809335144906,0.639768306304623));
#292=CARTESIAN_POINT('Ctrl Pts',(-0.548561727655406,-1.8267766555191,0.58404012882679));
#293=CARTESIAN_POINT('Ctrl Pts',(-0.464221635259018,-1.85858549134373,0.473155144748811));
#294=CARTESIAN_POINT('Ctrl Pts',(-0.423331128547687,-1.87171185511187,0.418039133098509));
#295=CARTESIAN_POINT('Ctrl Pts',(-0.346805124759163,-1.89302866640954,0.307415762546075));
#296=CARTESIAN_POINT('Ctrl Pts',(-0.311227078693204,-1.90116807906899,0.252691840900256));
#297=CARTESIAN_POINT('Ctrl Pts',(-0.266842186553098,-1.91005269159869,0.165643364995294));
#298=CARTESIAN_POINT('Ctrl Pts',(-0.253627137519135,-1.91244552959851,0.135869185435318));
#299=CARTESIAN_POINT('Ctrl Pts',(-0.233516369753035,-1.915909328499,0.0721093723087943));
#300=CARTESIAN_POINT('Ctrl Pts',(-0.22657449106199,-1.917,0.0381393798913387));
#301=CARTESIAN_POINT('Ctrl Pts',(-0.22657449106199,-1.917,-2.67721103379098E-16));
#302=CARTESIAN_POINT('Origin',(0.,-0.5,3.094));
#303=CARTESIAN_POINT('',(0.,-2.,0.));
#304=CARTESIAN_POINT('',(1.5,-0.5,1.93649167310371));
#305=CARTESIAN_POINT('Ctrl Pts',(0.,-2.,0.));
#306=CARTESIAN_POINT('Ctrl Pts',(-0.0961411550195268,-2.,0.111014243461451));
#307=CARTESIAN_POINT('Ctrl Pts',(-0.196450848623568,-1.99063944120182,0.22682842175696));
#308=CARTESIAN_POINT('Ctrl Pts',(-0.398266179044276,-1.94982168879156,0.460751452156839));
#309=CARTESIAN_POINT('Ctrl Pts',(-0.499770352178136,-1.91837506306203,0.578863410923996));
#310=CARTESIAN_POINT('Ctrl Pts',(-0.69693986988125,-1.8326037889867,0.810437726873019));
#311=CARTESIAN_POINT('Ctrl Pts',(-0.792663879718289,-1.77825496298275,0.923972045675872));
#312=CARTESIAN_POINT('Ctrl Pts',(-0.97170601444057,-1.64805888245972,1.1400951607225));
#313=CARTESIAN_POINT('Ctrl Pts',(-1.05501783704015,-1.57220044066117,1.24268243835475));
#314=CARTESIAN_POINT('Ctrl Pts',(-1.17931927086619,-1.4300631573689,1.40081701934159));
#315=CARTESIAN_POINT('Ctrl Pts',(-1.22856075583013,-1.36481377145975,1.46501719670227));
#316=CARTESIAN_POINT('Ctrl Pts',(-1.31861593687038,-1.22008082950376,1.58757512817665));
#317=CARTESIAN_POINT('Ctrl Pts',(-1.35941840677932,-1.14058470661509,1.64592628995236));
#318=CARTESIAN_POINT('Ctrl Pts',(-1.42718340485881,-0.970653496190708,1.75152470322092));
#319=CARTESIAN_POINT('Ctrl Pts',(-1.45417708540386,-0.880078983817988,1.79883927554711));
#320=CARTESIAN_POINT('Ctrl Pts',(-1.49059797927744,-0.692895551769123,1.87889795138938));
#321=CARTESIAN_POINT('Ctrl Pts',(-1.5,-0.596277795737848,1.91163285313689));
#322=CARTESIAN_POINT('Ctrl Pts',(-1.5,-0.408856934043508,1.96002471154183));
#323=CARTESIAN_POINT('Ctrl Pts',(-1.49153647463999,-0.3136421208821,1.97757849691746));
#324=CARTESIAN_POINT('Ctrl Pts',(-1.45510856957527,-0.123079099647504,1.99850935114866));
#325=CARTESIAN_POINT('Ctrl Pts',(-1.42713935083006,-0.0277338182039764,
2.00190463905534));
#326=CARTESIAN_POINT('Ctrl Pts',(-1.35286257943854,0.155381488224567,1.99605810118353));
#327=CARTESIAN_POINT('Ctrl Pts',(-1.30646424707437,0.243398814050578,1.98684615725914));
#328=CARTESIAN_POINT('Ctrl Pts',(-1.1993322661982,0.406141677744345,1.96006366556667));
#329=CARTESIAN_POINT('Ctrl Pts',(-1.13859424862081,0.480872727426689,1.94254411146983));
#330=CARTESIAN_POINT('Ctrl Pts',(-1.00750714731696,0.615376287831109,1.90430450384933));
#331=CARTESIAN_POINT('Ctrl Pts',(-0.932200805489937,0.679376934770275,1.88205608944259));
#332=CARTESIAN_POINT('Ctrl Pts',(-0.768013017988607,0.792317414143535,1.83736802503739));
#333=CARTESIAN_POINT('Ctrl Pts',(-0.679128428172992,0.841277295662646,1.81499062106636));
#334=CARTESIAN_POINT('Ctrl Pts',(-0.492825446754906,0.920338918631352,1.77620810826792));
#335=CARTESIAN_POINT('Ctrl Pts',(-0.395226644898017,0.950502664098195,1.75984762844509));
#336=CARTESIAN_POINT('Ctrl Pts',(-0.19758786318955,0.990342615579214,1.73774005456644));
#337=CARTESIAN_POINT('Ctrl Pts',(-0.0975376234182646,1.,1.73205080756888));
#338=CARTESIAN_POINT('Ctrl Pts',(0.0975376234182646,1.,1.73205080756888));
#339=CARTESIAN_POINT('Ctrl Pts',(0.19758786318955,0.990342615579214,1.73774005456644));
#340=CARTESIAN_POINT('Ctrl Pts',(0.395226644898017,0.950502664098195,1.75984762844508));
#341=CARTESIAN_POINT('Ctrl Pts',(0.492825446754906,0.920338918631352,1.77620810826792));
#342=CARTESIAN_POINT('Ctrl Pts',(0.679128428172991,0.841277295662647,1.81499062106637));
#343=CARTESIAN_POINT('Ctrl Pts',(0.768013017988607,0.792317414143535,1.83736802503739));
#344=CARTESIAN_POINT('Ctrl Pts',(0.932200805489937,0.679376934770276,1.88205608944259));
#345=CARTESIAN_POINT('Ctrl Pts',(1.00750714731696,0.61537628783111,1.90430450384933));
#346=CARTESIAN_POINT('Ctrl Pts',(1.13859424862081,0.480872727426689,1.94254411146983));
#347=CARTESIAN_POINT('Ctrl Pts',(1.1993322661982,0.406141677744346,1.96006366556667));
#348=CARTESIAN_POINT('Ctrl Pts',(1.30646424707437,0.243398814050579,1.98684615725914));
#349=CARTESIAN_POINT('Ctrl Pts',(1.35286257943854,0.155381488224568,1.99605810118353));
#350=CARTESIAN_POINT('Ctrl Pts',(1.42713935083006,-0.0277338182039757,2.00190463905534));
#351=CARTESIAN_POINT('Ctrl Pts',(1.45510856957527,-0.123079099647503,1.99850935114867));
#352=CARTESIAN_POINT('Ctrl Pts',(1.49153647463998,-0.313642120882099,1.97757849691746));
#353=CARTESIAN_POINT('Ctrl Pts',(1.5,-0.408856934043507,1.96002471154183));
#354=CARTESIAN_POINT('Ctrl Pts',(1.5,-0.5,1.93649167310371));
#355=CARTESIAN_POINT('Ctrl Pts',(1.5,-0.5,1.93649167310371));
#356=CARTESIAN_POINT('Ctrl Pts',(1.5,-0.596277795737848,1.91163285313689));
#357=CARTESIAN_POINT('Ctrl Pts',(1.49059797927744,-0.692895551769123,1.87889795138938));
#358=CARTESIAN_POINT('Ctrl Pts',(1.45417708540386,-0.880078983817988,1.79883927554711));
#359=CARTESIAN_POINT('Ctrl Pts',(1.42718340485881,-0.970653496190709,1.75152470322092));
#360=CARTESIAN_POINT('Ctrl Pts',(1.35941840677932,-1.14058470661509,1.64592628995236));
#361=CARTESIAN_POINT('Ctrl Pts',(1.31861593687038,-1.22008082950376,1.58757512817665));
#362=CARTESIAN_POINT('Ctrl Pts',(1.22856075583013,-1.36481377145975,1.46501719670227));
#363=CARTESIAN_POINT('Ctrl Pts',(1.17931927086619,-1.4300631573689,1.40081701934159));
#364=CARTESIAN_POINT('Ctrl Pts',(1.05501783704015,-1.57220044066117,1.24268243835475));
#365=CARTESIAN_POINT('Ctrl Pts',(0.97170601444057,-1.64805888245972,1.1400951607225));
#366=CARTESIAN_POINT('Ctrl Pts',(0.792663879718288,-1.77825496298275,0.923972045675872));
#367=CARTESIAN_POINT('Ctrl Pts',(0.696939869881249,-1.8326037889867,0.810437726873019));
#368=CARTESIAN_POINT('Ctrl Pts',(0.499770352178135,-1.91837506306203,0.578863410923996));
#369=CARTESIAN_POINT('Ctrl Pts',(0.398266179044275,-1.94982168879156,0.460751452156838));
#370=CARTESIAN_POINT('Ctrl Pts',(0.196450848623568,-1.99063944120182,0.22682842175696));
#371=CARTESIAN_POINT('Ctrl Pts',(0.0961411550195266,-2.,0.11101424346145));
#372=CARTESIAN_POINT('Ctrl Pts',(0.,-2.,0.));
#373=CARTESIAN_POINT('',(1.5,-0.5,3.094));
#374=CARTESIAN_POINT('',(1.5,-0.5,3.094));
#375=CARTESIAN_POINT('Origin',(0.,-0.5,3.094));
#376=CARTESIAN_POINT('Origin',(-7.64938318290664E-17,-0.5,3.094));
#377=CARTESIAN_POINT('Origin',(3.4375,0.,0.));
#378=CARTESIAN_POINT('',(3.4375,1.917,2.34764791396548E-16));
#379=CARTESIAN_POINT('Origin',(3.4375,0.,0.));
#380=CARTESIAN_POINT('',(-3.4375,1.917,2.34764791396548E-16));
#381=CARTESIAN_POINT('',(3.4375,1.917,-2.34764791396548E-16));
#382=CARTESIAN_POINT('Origin',(-3.4375,0.,0.));
#383=CARTESIAN_POINT('Origin',(3.4375,0.,0.));
#384=CARTESIAN_POINT('',(-3.4375,2.,-2.44929359829471E-16));
#385=CARTESIAN_POINT('Origin',(-3.4375,0.,0.));
#386=CARTESIAN_POINT('',(3.4375,2.,2.44929359829471E-16));
#387=CARTESIAN_POINT('',(3.4375,2.,-2.44929359829471E-16));
#388=CARTESIAN_POINT('Origin',(3.4375,0.,0.));
#389=CARTESIAN_POINT('Origin',(3.4375,-1.12189400245376E-16,-4.58893101297934E-17));
#390=CARTESIAN_POINT('Origin',(-3.4375,0.,0.));
#391=UNCERTAINTY_MEASURE_WITH_UNIT(LENGTH_MEASURE(0.000393700787401575),
#396,'DISTANCE_ACCURACY_VALUE',
'Maximum model space distance between geometric entities at asserted c
onnectivities');
#392=UNCERTAINTY_MEASURE_WITH_UNIT(LENGTH_MEASURE(0.000393700787401575),
#396,'DISTANCE_ACCURACY_VALUE',
'Maximum model space distance between geometric entities at asserted c
onnectivities');
#393=(
GEOMETRIC_REPRESENTATION_CONTEXT(3)
GLOBAL_UNCERTAINTY_ASSIGNED_CONTEXT((#391))
GLOBAL_UNIT_ASSIGNED_CONTEXT((#396,#400,#401))
REPRESENTATION_CONTEXT('','3D')
);
#394=(
GEOMETRIC_REPRESENTATION_CONTEXT(3)
GLOBAL_UNCERTAINTY_ASSIGNED_CONTEXT((#392))
GLOBAL_UNIT_ASSIGNED_CONTEXT((#396,#400,#401))
REPRESENTATION_CONTEXT('','3D')
);
#395=DIMENSIONAL_EXPONENTS(1.,0.,0.,0.,0.,0.,0.);
#396=(
CONVERSION_BASED_UNIT('inch',#399)
LENGTH_UNIT()
NAMED_UNIT(#395)
);
#397=(
LENGTH_UNIT()
NAMED_UNIT(*)
SI_UNIT(.MILLI.,.METRE.)
);
#398=(
LENGTH_UNIT()
NAMED_UNIT(*)
SI_UNIT(.CENTI.,.METRE.)
);
#399=LENGTH_MEASURE_WITH_UNIT(LENGTH_MEASURE(25.4),#397);
#400=(
NAMED_UNIT(*)
PLANE_ANGLE_UNIT()
SI_UNIT($,.RADIAN.)
);
#401=(
NAMED_UNIT(*)
SI_UNIT($,.STERADIAN.)
SOLID_ANGLE_UNIT()
);
#402=SHAPE_DEFINITION_REPRESENTATION(#403,#404);
#403=PRODUCT_DEFINITION_SHAPE('',$,#406);
#404=SHAPE_REPRESENTATION('',(#156),#393);
#405=PRODUCT_DEFINITION_CONTEXT('part definition',#410,'design');
#406=PRODUCT_DEFINITION('7ERWWW-4X3','7ERWWW-4X3',#407,#405);
#407=PRODUCT_DEFINITION_FORMATION('',$,#412);
#408=PRODUCT_RELATED_PRODUCT_CATEGORY('7ERWWW-4X3','7ERWWW-4X3',(#412));
#409=APPLICATION_PROTOCOL_DEFINITION('international standard',
'automotive_design',2009,#410);
#410=APPLICATION_CONTEXT(
'Core Data for Automotive Mechanical Design Process');
#411=PRODUCT_CONTEXT('part definition',#410,'mechanical');
#412=PRODUCT('7ERWWW-4X3','7ERWWW-4X3',$,(#411));
#413=PRESENTATION_STYLE_ASSIGNMENT((#414));
#414=SURFACE_STYLE_USAGE(.BOTH.,#417);
#415=SURFACE_STYLE_RENDERING_WITH_PROPERTIES($,#421,(#416));
#416=SURFACE_STYLE_TRANSPARENT(0.);
#417=SURFACE_SIDE_STYLE('',(#418,#415));
#418=SURFACE_STYLE_FILL_AREA(#419);
#419=FILL_AREA_STYLE('',(#420));
#420=FILL_AREA_STYLE_COLOUR('',#421);
#421=COLOUR_RGB('',0.749019607843137,0.749019607843137,0.749019607843137);
ENDSEC;
END-ISO-10303-21;
