ISO-10303-21;
HEADER;
/* Generated by software containing ST-Developer
 * from STEP Tools, Inc. (www.steptools.com) 
 */

FILE_DESCRIPTION(
/* description */ (''),
/* implementation_level */ '2;1');

FILE_NAME(
/* name */ 
'W:\\AUTOCAD\\AutoCad - Projects\\Numbered\\7ERWWW\\7ERWWW\\7ERWWW-4X2.
stp',
/* time_stamp */ '2021-09-01T15:04:21-04:00',
/* author */ ('rick'),
/* organization */ (''),
/* preprocessor_version */ 'ST-DEVELOPER v18',
/* originating_system */ 'Autodesk Inventor 2020',
/* authorisation */ '');

FILE_SCHEMA (('AUTOMOTIVE_DESIGN { 1 0 10303 214 3 1 1 }'));
ENDSEC;

DATA;
#10=MECHANICAL_DESIGN_GEOMETRIC_PRESENTATION_REPRESENTATION('',(#13),#390);
#11=SHAPE_REPRESENTATION_RELATIONSHIP('SRR','None',#400,#12);
#12=ADVANCED_BREP_SHAPE_REPRESENTATION('',(#14),#389);
#13=STYLED_ITEM('',(#409),#14);
#14=MANIFOLD_SOLID_BREP('Solid1',#137);
#15=FACE_BOUND('',#40,.T.);
#16=FACE_BOUND('',#42,.T.);
#17=FACE_BOUND('',#44,.T.);
#18=FACE_BOUND('',#46,.T.);
#19=FACE_BOUND('',#48,.T.);
#20=B_SPLINE_CURVE_WITH_KNOTS('',3,(#220,#221,#222,#223,#224,#225,#226,
#227,#228,#229,#230,#231,#232,#233,#234,#235,#236,#237,#238,#239,#240,#241),
 .UNSPECIFIED.,.F.,.F.,(4,2,2,2,2,2,2,2,2,2,4),(1.03388777837201,1.46703524293799,
1.90018270750398,2.33333017206996,2.76647763663594,3.6327725657679,4.49906749489986,
5.02645135591427,5.55383521692868,6.08121907794309,6.34334409909083),
 .UNSPECIFIED.);
#21=B_SPLINE_CURVE_WITH_KNOTS('',3,(#242,#243,#244,#245,#246,#247,#248,
#249,#250,#251,#252,#253,#254,#255,#256,#257,#258,#259,#260,#261,#262,#263,
#264,#265,#266,#267,#268,#269,#270,#271,#272,#273,#274,#275,#276,#277,#278,
#279,#280,#281,#282,#283,#284,#285,#286,#287,#288,#289,#290,#291,#292,#293,
#294,#295,#296,#297),.UNSPECIFIED.,.F.,.F.,(4,2,2,2,2,2,2,2,2,2,2,2,2,2,
2,2,2,2,2,2,2,2,2,2,2,2,2,4),(6.34334409909083,6.6086029389575,7.0486753383857,
7.48874773781391,7.92882013724212,8.36889253667033,8.78814931259687,9.2074060885234,
9.62666286444994,10.0459196403765,10.465176416303,10.8844331922296,11.3036899681561,
11.7229467440826,12.1630191435108,12.603091542939,13.0431639423673,13.4832363417955,
14.0106202028099,14.5380040638243,15.0653879248387,15.5927717858531,16.4590667149851,
17.325361644117,17.758509108683,18.191656573249,18.624804037815,19.0579515023809),
 .UNSPECIFIED.);
#22=B_SPLINE_CURVE_WITH_KNOTS('',3,(#301,#302,#303,#304,#305,#306,#307,
#308,#309,#310,#311,#312,#313,#314,#315,#316,#317,#318,#319,#320,#321,#322,
#323,#324,#325,#326,#327,#328,#329,#330,#331,#332,#333,#334,#335,#336,#337,
#338,#339,#340,#341,#342,#343,#344,#345,#346,#347,#348,#349,#350),
 .UNSPECIFIED.,.F.,.F.,(4,2,2,2,2,2,2,2,2,2,2,2,2,2,2,2,2,2,2,2,2,2,2,2,
4),(0.,0.844915948091808,1.68983189618362,2.53474784427542,3.37966379236723,
3.95549034122391,4.53131689008059,5.10714343893727,5.68296998779395,6.19025903309089,
6.69754807838784,7.20483712368479,7.71212616898173,8.19133016121888,8.67053415345603,
9.14973814569318,9.62894213793033,10.1081461301675,10.5873501224046,11.0665541146418,
11.5457581068789,12.0530471521759,12.5603361974728,13.0676252427698,13.5749142880667),
 .UNSPECIFIED.);
#23=B_SPLINE_CURVE_WITH_KNOTS('',3,(#351,#352,#353,#354,#355,#356,#357,
#358,#359,#360,#361,#362,#363,#364,#365,#366,#367,#368),.UNSPECIFIED.,.F.,
 .F.,(4,2,2,2,2,2,2,2,4),(13.5749142880667,14.1507408369234,14.7265673857801,
15.3023939346367,15.8782204834934,16.7231364315852,17.568052379677,18.4129683277689,
19.2578842758607),.UNSPECIFIED.);
#24=CYLINDRICAL_SURFACE('',#159,0.935);
#25=CYLINDRICAL_SURFACE('',#161,1.);
#26=CYLINDRICAL_SURFACE('',#164,1.917);
#27=CYLINDRICAL_SURFACE('',#167,2.);
#28=FACE_OUTER_BOUND('',#36,.T.);
#29=FACE_OUTER_BOUND('',#37,.T.);
#30=FACE_OUTER_BOUND('',#38,.T.);
#31=FACE_OUTER_BOUND('',#39,.T.);
#32=FACE_OUTER_BOUND('',#41,.T.);
#33=FACE_OUTER_BOUND('',#43,.T.);
#34=FACE_OUTER_BOUND('',#45,.T.);
#35=FACE_OUTER_BOUND('',#47,.T.);
#36=EDGE_LOOP('',(#93,#94));
#37=EDGE_LOOP('',(#95,#96,#97,#98,#99,#100));
#38=EDGE_LOOP('',(#101,#102,#103,#104,#105));
#39=EDGE_LOOP('',(#106));
#40=EDGE_LOOP('',(#107));
#41=EDGE_LOOP('',(#108,#109,#110,#111));
#42=EDGE_LOOP('',(#112,#113,#114));
#43=EDGE_LOOP('',(#115,#116,#117,#118));
#44=EDGE_LOOP('',(#119,#120));
#45=EDGE_LOOP('',(#121));
#46=EDGE_LOOP('',(#122));
#47=EDGE_LOOP('',(#123));
#48=EDGE_LOOP('',(#124));
#49=CIRCLE('',#158,0.935);
#50=CIRCLE('',#160,0.935);
#51=CIRCLE('',#162,1.);
#52=CIRCLE('',#165,1.917);
#53=CIRCLE('',#166,1.917);
#54=CIRCLE('',#168,2.);
#55=CIRCLE('',#169,2.);
#56=LINE('',#213,#61);
#57=LINE('',#219,#62);
#58=LINE('',#370,#63);
#59=LINE('',#377,#64);
#60=LINE('',#383,#65);
#61=VECTOR('',#176,0.393700787401575);
#62=VECTOR('',#183,0.935);
#63=VECTOR('',#186,1.);
#64=VECTOR('',#195,1.917);
#65=VECTOR('',#202,2.);
#66=VERTEX_POINT('',#211);
#67=VERTEX_POINT('',#212);
#68=VERTEX_POINT('',#216);
#69=VERTEX_POINT('',#218);
#70=VERTEX_POINT('',#299);
#71=VERTEX_POINT('',#300);
#72=VERTEX_POINT('',#369);
#73=VERTEX_POINT('',#374);
#74=VERTEX_POINT('',#376);
#75=VERTEX_POINT('',#380);
#76=VERTEX_POINT('',#382);
#77=EDGE_CURVE('',#66,#67,#56,.T.);
#78=EDGE_CURVE('',#67,#66,#49,.T.);
#79=EDGE_CURVE('',#68,#68,#50,.T.);
#80=EDGE_CURVE('',#68,#69,#57,.T.);
#81=EDGE_CURVE('',#67,#69,#20,.T.);
#82=EDGE_CURVE('',#69,#66,#21,.T.);
#83=EDGE_CURVE('',#70,#71,#22,.T.);
#84=EDGE_CURVE('',#71,#70,#23,.T.);
#85=EDGE_CURVE('',#71,#72,#58,.T.);
#86=EDGE_CURVE('',#72,#72,#51,.T.);
#87=EDGE_CURVE('',#73,#73,#52,.T.);
#88=EDGE_CURVE('',#73,#74,#59,.T.);
#89=EDGE_CURVE('',#74,#74,#53,.T.);
#90=EDGE_CURVE('',#75,#75,#54,.T.);
#91=EDGE_CURVE('',#75,#76,#60,.T.);
#92=EDGE_CURVE('',#76,#76,#55,.T.);
#93=ORIENTED_EDGE('',*,*,#77,.F.);
#94=ORIENTED_EDGE('',*,*,#78,.F.);
#95=ORIENTED_EDGE('',*,*,#79,.F.);
#96=ORIENTED_EDGE('',*,*,#80,.T.);
#97=ORIENTED_EDGE('',*,*,#81,.F.);
#98=ORIENTED_EDGE('',*,*,#78,.T.);
#99=ORIENTED_EDGE('',*,*,#82,.F.);
#100=ORIENTED_EDGE('',*,*,#80,.F.);
#101=ORIENTED_EDGE('',*,*,#83,.F.);
#102=ORIENTED_EDGE('',*,*,#84,.F.);
#103=ORIENTED_EDGE('',*,*,#85,.T.);
#104=ORIENTED_EDGE('',*,*,#86,.T.);
#105=ORIENTED_EDGE('',*,*,#85,.F.);
#106=ORIENTED_EDGE('',*,*,#86,.F.);
#107=ORIENTED_EDGE('',*,*,#79,.T.);
#108=ORIENTED_EDGE('',*,*,#87,.F.);
#109=ORIENTED_EDGE('',*,*,#88,.T.);
#110=ORIENTED_EDGE('',*,*,#89,.F.);
#111=ORIENTED_EDGE('',*,*,#88,.F.);
#112=ORIENTED_EDGE('',*,*,#81,.T.);
#113=ORIENTED_EDGE('',*,*,#82,.T.);
#114=ORIENTED_EDGE('',*,*,#77,.T.);
#115=ORIENTED_EDGE('',*,*,#90,.F.);
#116=ORIENTED_EDGE('',*,*,#91,.T.);
#117=ORIENTED_EDGE('',*,*,#92,.T.);
#118=ORIENTED_EDGE('',*,*,#91,.F.);
#119=ORIENTED_EDGE('',*,*,#83,.T.);
#120=ORIENTED_EDGE('',*,*,#84,.T.);
#121=ORIENTED_EDGE('',*,*,#92,.F.);
#122=ORIENTED_EDGE('',*,*,#87,.T.);
#123=ORIENTED_EDGE('',*,*,#90,.T.);
#124=ORIENTED_EDGE('',*,*,#89,.T.);
#125=PLANE('',#157);
#126=PLANE('',#163);
#127=PLANE('',#170);
#128=PLANE('',#171);
#129=ADVANCED_FACE('',(#28),#125,.T.);
#130=ADVANCED_FACE('',(#29),#24,.F.);
#131=ADVANCED_FACE('',(#30),#25,.T.);
#132=ADVANCED_FACE('',(#31,#15),#126,.T.);
#133=ADVANCED_FACE('',(#32,#16),#26,.F.);
#134=ADVANCED_FACE('',(#33,#17),#27,.T.);
#135=ADVANCED_FACE('',(#34,#18),#127,.T.);
#136=ADVANCED_FACE('',(#35,#19),#128,.F.);
#137=CLOSED_SHELL('',(#129,#130,#131,#132,#133,#134,#135,#136));
#138=DERIVED_UNIT_ELEMENT(#140,1.);
#139=DERIVED_UNIT_ELEMENT(#394,3.);
#140=(
MASS_UNIT()
NAMED_UNIT(*)
SI_UNIT($,.GRAM.)
);
#141=DERIVED_UNIT((#138,#139));
#142=MEASURE_REPRESENTATION_ITEM('density measure',
POSITIVE_RATIO_MEASURE(1.),#141);
#143=PROPERTY_DEFINITION_REPRESENTATION(#148,#145);
#144=PROPERTY_DEFINITION_REPRESENTATION(#149,#146);
#145=REPRESENTATION('material name',(#147),#389);
#146=REPRESENTATION('density',(#142),#389);
#147=DESCRIPTIVE_REPRESENTATION_ITEM('Generic','Generic');
#148=PROPERTY_DEFINITION('material property','material name',#402);
#149=PROPERTY_DEFINITION('material property','density of part',#402);
#150=DATE_TIME_ROLE('creation_date');
#151=APPLIED_DATE_AND_TIME_ASSIGNMENT(#152,#150,(#402));
#152=DATE_AND_TIME(#153,#154);
#153=CALENDAR_DATE(2012,29,6);
#154=LOCAL_TIME(12,39,31.,#155);
#155=COORDINATED_UNIVERSAL_TIME_OFFSET(0,0,.BEHIND.);
#156=AXIS2_PLACEMENT_3D('placement',#209,#172,#173);
#157=AXIS2_PLACEMENT_3D('',#210,#174,#175);
#158=AXIS2_PLACEMENT_3D('',#214,#177,#178);
#159=AXIS2_PLACEMENT_3D('',#215,#179,#180);
#160=AXIS2_PLACEMENT_3D('',#217,#181,#182);
#161=AXIS2_PLACEMENT_3D('',#298,#184,#185);
#162=AXIS2_PLACEMENT_3D('',#371,#187,#188);
#163=AXIS2_PLACEMENT_3D('',#372,#189,#190);
#164=AXIS2_PLACEMENT_3D('',#373,#191,#192);
#165=AXIS2_PLACEMENT_3D('',#375,#193,#194);
#166=AXIS2_PLACEMENT_3D('',#378,#196,#197);
#167=AXIS2_PLACEMENT_3D('',#379,#198,#199);
#168=AXIS2_PLACEMENT_3D('',#381,#200,#201);
#169=AXIS2_PLACEMENT_3D('',#384,#203,#204);
#170=AXIS2_PLACEMENT_3D('',#385,#205,#206);
#171=AXIS2_PLACEMENT_3D('',#386,#207,#208);
#172=DIRECTION('axis',(0.,0.,1.));
#173=DIRECTION('refdir',(1.,0.,0.));
#174=DIRECTION('center_axis',(0.,0.,1.));
#175=DIRECTION('ref_axis',(1.,0.,0.));
#176=DIRECTION('',(1.,0.,0.));
#177=DIRECTION('center_axis',(0.,0.,-1.));
#178=DIRECTION('ref_axis',(-1.,0.,0.));
#179=DIRECTION('center_axis',(0.,0.,-1.));
#180=DIRECTION('ref_axis',(-1.,0.,0.));
#181=DIRECTION('center_axis',(0.,0.,-1.));
#182=DIRECTION('ref_axis',(-1.,0.,0.));
#183=DIRECTION('',(0.,0.,-1.));
#184=DIRECTION('center_axis',(0.,0.,-1.));
#185=DIRECTION('ref_axis',(-1.,0.,0.));
#186=DIRECTION('',(0.,0.,1.));
#187=DIRECTION('center_axis',(0.,0.,-1.));
#188=DIRECTION('ref_axis',(-1.,0.,0.));
#189=DIRECTION('center_axis',(0.,0.,1.));
#190=DIRECTION('ref_axis',(1.,0.,0.));
#191=DIRECTION('center_axis',(-1.,0.,0.));
#192=DIRECTION('ref_axis',(0.,-1.,0.));
#193=DIRECTION('center_axis',(-1.,0.,0.));
#194=DIRECTION('ref_axis',(0.,-1.,0.));
#195=DIRECTION('',(-1.,0.,0.));
#196=DIRECTION('center_axis',(1.,0.,0.));
#197=DIRECTION('ref_axis',(0.,-1.,0.));
#198=DIRECTION('center_axis',(-1.,0.,0.));
#199=DIRECTION('ref_axis',(0.,-1.,0.));
#200=DIRECTION('center_axis',(-1.,0.,0.));
#201=DIRECTION('ref_axis',(0.,-1.,0.));
#202=DIRECTION('',(1.,0.,0.));
#203=DIRECTION('center_axis',(-1.,0.,0.));
#204=DIRECTION('ref_axis',(0.,-1.,0.));
#205=DIRECTION('center_axis',(1.,0.,0.));
#206=DIRECTION('ref_axis',(0.,0.,-1.));
#207=DIRECTION('center_axis',(1.,0.,0.));
#208=DIRECTION('ref_axis',(0.,0.,-1.));
#209=CARTESIAN_POINT('',(0.,0.,0.));
#210=CARTESIAN_POINT('Origin',(-5.86215157180018E-17,-1.,3.49676543189026E-16));
#211=CARTESIAN_POINT('',(-0.182581488656434,-1.917,3.49676543189026E-16));
#212=CARTESIAN_POINT('',(0.182581488656434,-1.917,3.49676543189026E-16));
#213=CARTESIAN_POINT('',(3.4375,-1.917,3.49676543189026E-16));
#214=CARTESIAN_POINT('Origin',(0.,-1.,3.49676543189026E-16));
#215=CARTESIAN_POINT('Origin',(0.,-1.,3.062));
#216=CARTESIAN_POINT('',(0.935,-1.,3.062));
#217=CARTESIAN_POINT('Origin',(0.,-1.,3.062));
#218=CARTESIAN_POINT('',(0.935,-0.999999999998841,1.63550878933885));
#219=CARTESIAN_POINT('',(0.935,-1.,3.062));
#220=CARTESIAN_POINT('Ctrl Pts',(0.182581488656435,-1.917,-1.63910879619856E-17));
#221=CARTESIAN_POINT('Ctrl Pts',(0.182581488656435,-1.917,0.0568434992868741));
#222=CARTESIAN_POINT('Ctrl Pts',(0.195164808741197,-1.91458333315605,0.108389094654265));
#223=CARTESIAN_POINT('Ctrl Pts',(0.230375972906269,-1.90635462382668,0.207821482164566));
#224=CARTESIAN_POINT('Ctrl Pts',(0.253010987119726,-1.90048722151612,0.255701145841625));
#225=CARTESIAN_POINT('Ctrl Pts',(0.302325861280311,-1.88515019543311,0.351345267041252));
#226=CARTESIAN_POINT('Ctrl Pts',(0.32907935777821,-1.87568484604685,0.398860037991059));
#227=CARTESIAN_POINT('Ctrl Pts',(0.384300113250739,-1.85289541830724,0.494025851845478));
#228=CARTESIAN_POINT('Ctrl Pts',(0.412811004152539,-1.83956937500456,0.54165109965413));
#229=CARTESIAN_POINT('Ctrl Pts',(0.499094015438917,-1.7933402603034,0.684740357218296));
#230=CARTESIAN_POINT('Ctrl Pts',(0.557258955308398,-1.75425112303097,0.779910389725299));
#231=CARTESIAN_POINT('Ctrl Pts',(0.666393803366714,-1.659811791477,0.964718629803299));
#232=CARTESIAN_POINT('Ctrl Pts',(0.717419710743947,-1.60445176927322,1.05431873963415));
#233=CARTESIAN_POINT('Ctrl Pts',(0.788648003727558,-1.50439990060601,1.18984601248866));
#234=CARTESIAN_POINT('Ctrl Pts',(0.814737349322746,-1.46171240200881,1.24223074209588));
#235=CARTESIAN_POINT('Ctrl Pts',(0.861258677293081,-1.36770746679586,1.34503406963355));
#236=CARTESIAN_POINT('Ctrl Pts',(0.881679944124449,-1.3163824632401,1.39545059688714));
#237=CARTESIAN_POINT('Ctrl Pts',(0.913518476527646,-1.20722295163668,1.49089167491725));
#238=CARTESIAN_POINT('Ctrl Pts',(0.924936311735206,-1.1493252144947,1.53596269730399));
#239=CARTESIAN_POINT('Ctrl Pts',(0.933536108116883,-1.0601646026962,1.59757150214021));
#240=CARTESIAN_POINT('Ctrl Pts',(0.935000000000002,-1.03015809524456,1.61706920928683));
#241=CARTESIAN_POINT('Ctrl Pts',(0.935000000000001,-0.999999999997682,1.63550878933885));
#242=CARTESIAN_POINT('Ctrl Pts',(0.934999999999999,-0.999999999997682,1.63550878933885));
#243=CARTESIAN_POINT('Ctrl Pts',(0.934999999999998,-0.969481351595683,1.65416882259631));
#244=CARTESIAN_POINT('Ctrl Pts',(0.933500015382805,-0.938807468692115,1.67174527604979));
#245=CARTESIAN_POINT('Ctrl Pts',(0.92549395045023,-0.857598621266026,1.71543696454681));
#246=CARTESIAN_POINT('Ctrl Pts',(0.915972308193176,-0.804136069571809,1.74117784208064));
#247=CARTESIAN_POINT('Ctrl Pts',(0.886006214831147,-0.696090579238796,1.78711863103475));
#248=CARTESIAN_POINT('Ctrl Pts',(0.865547007980288,-0.641514889457162,1.80732596402825));
#249=CARTESIAN_POINT('Ctrl Pts',(0.81381014117447,-0.535891914860372,1.84140932606158));
#250=CARTESIAN_POINT('Ctrl Pts',(0.782471598873113,-0.484741635261752,1.85534048048263));
#251=CARTESIAN_POINT('Ctrl Pts',(0.710980039688445,-0.389868564145673,1.87756897449917));
#252=CARTESIAN_POINT('Ctrl Pts',(0.670824910944859,-0.346153735234144,1.88589349789709));
#253=CARTESIAN_POINT('Ctrl Pts',(0.587803428230713,-0.270819844891328,1.89813914194451));
#254=CARTESIAN_POINT('Ctrl Pts',(0.542473916454377,-0.236276105739448,1.90262981562229));
#255=CARTESIAN_POINT('Ctrl Pts',(0.444487530899696,-0.175389199859919,1.90920539542315));
#256=CARTESIAN_POINT('Ctrl Pts',(0.391833418253101,-0.149044213870245,1.91131457834243));
#257=CARTESIAN_POINT('Ctrl Pts',(0.282515642205797,-0.106778804095472,1.91414102635083));
#258=CARTESIAN_POINT('Ctrl Pts',(0.225772951231372,-0.0908271383690833,
1.91487564414697));
#259=CARTESIAN_POINT('Ctrl Pts',(0.112025715328859,-0.0699360468432916,
1.91575239813022));
#260=CARTESIAN_POINT('Ctrl Pts',(0.0550205742685746,-0.0650000000000001,
1.91589770081808));
#261=CARTESIAN_POINT('Ctrl Pts',(-0.0550205742685743,-0.0650000000000001,
1.91589770081808));
#262=CARTESIAN_POINT('Ctrl Pts',(-0.112025715328858,-0.0699360468432915,
1.91575239813022));
#263=CARTESIAN_POINT('Ctrl Pts',(-0.225772951231372,-0.0908271383690831,
1.91487564414697));
#264=CARTESIAN_POINT('Ctrl Pts',(-0.282515642205796,-0.106778804095472,
1.91414102635083));
#265=CARTESIAN_POINT('Ctrl Pts',(-0.391833418253101,-0.149044213870245,
1.91131457834243));
#266=CARTESIAN_POINT('Ctrl Pts',(-0.444487530899695,-0.175389199859919,
1.90920539542315));
#267=CARTESIAN_POINT('Ctrl Pts',(-0.542473916454376,-0.236276105739447,
1.90262981562229));
#268=CARTESIAN_POINT('Ctrl Pts',(-0.587803428230712,-0.270819844891327,
1.89813914194451));
#269=CARTESIAN_POINT('Ctrl Pts',(-0.670824910944858,-0.346153735234144,
1.88589349789709));
#270=CARTESIAN_POINT('Ctrl Pts',(-0.710980039688444,-0.389868564145672,
1.87756897449917));
#271=CARTESIAN_POINT('Ctrl Pts',(-0.782471598873113,-0.484741635261751,
1.85534048048263));
#272=CARTESIAN_POINT('Ctrl Pts',(-0.81381014117447,-0.535891914860372,1.84140932606158));
#273=CARTESIAN_POINT('Ctrl Pts',(-0.865547007980287,-0.641514889457161,
1.80732596402825));
#274=CARTESIAN_POINT('Ctrl Pts',(-0.886006214831147,-0.696090579238795,
1.78711863103475));
#275=CARTESIAN_POINT('Ctrl Pts',(-0.915972308193176,-0.804136069571808,
1.74117784208064));
#276=CARTESIAN_POINT('Ctrl Pts',(-0.92549395045023,-0.857598621266025,1.71543696454681));
#277=CARTESIAN_POINT('Ctrl Pts',(-0.936475340765897,-0.968987431896676,
1.65550796209967));
#278=CARTESIAN_POINT('Ctrl Pts',(-0.936425463845278,-1.03020846036288,1.61827080073667));
#279=CARTESIAN_POINT('Ctrl Pts',(-0.924936311735206,-1.1493252144947,1.53596269730399));
#280=CARTESIAN_POINT('Ctrl Pts',(-0.913518476527647,-1.20722295163668,1.49089167491725));
#281=CARTESIAN_POINT('Ctrl Pts',(-0.88167994412445,-1.3163824632401,1.39545059688714));
#282=CARTESIAN_POINT('Ctrl Pts',(-0.861258677293081,-1.36770746679586,1.34503406963355));
#283=CARTESIAN_POINT('Ctrl Pts',(-0.814737349322746,-1.46171240200881,1.24223074209588));
#284=CARTESIAN_POINT('Ctrl Pts',(-0.788648003727558,-1.50439990060601,1.18984601248867));
#285=CARTESIAN_POINT('Ctrl Pts',(-0.717419710743946,-1.60445176927322,1.05431873963415));
#286=CARTESIAN_POINT('Ctrl Pts',(-0.666393803366714,-1.659811791477,0.964718629803299));
#287=CARTESIAN_POINT('Ctrl Pts',(-0.557258955308398,-1.75425112303097,0.779910389725299));
#288=CARTESIAN_POINT('Ctrl Pts',(-0.499094015438919,-1.7933402603034,0.684740357218297));
#289=CARTESIAN_POINT('Ctrl Pts',(-0.41281100415254,-1.83956937500456,0.541651099654131));
#290=CARTESIAN_POINT('Ctrl Pts',(-0.384300113250739,-1.85289541830724,0.494025851845478));
#291=CARTESIAN_POINT('Ctrl Pts',(-0.32907935777821,-1.87568484604685,0.398860037991059));
#292=CARTESIAN_POINT('Ctrl Pts',(-0.302325861280312,-1.88515019543311,0.351345267041253));
#293=CARTESIAN_POINT('Ctrl Pts',(-0.253010987119727,-1.90048722151612,0.255701145841626));
#294=CARTESIAN_POINT('Ctrl Pts',(-0.230375972906271,-1.90635462382668,0.207821482164567));
#295=CARTESIAN_POINT('Ctrl Pts',(-0.195164808741199,-1.91458333315605,0.108389094654265));
#296=CARTESIAN_POINT('Ctrl Pts',(-0.182581488656435,-1.917,0.0568434992868745));
#297=CARTESIAN_POINT('Ctrl Pts',(-0.182581488656435,-1.917,-3.82458719112997E-17));
#298=CARTESIAN_POINT('Origin',(0.,-1.,3.062));
#299=CARTESIAN_POINT('',(0.,-2.,0.));
#300=CARTESIAN_POINT('',(1.,-1.,1.73205080756888));
#301=CARTESIAN_POINT('Ctrl Pts',(0.,-2.,0.));
#302=CARTESIAN_POINT('Ctrl Pts',(-0.0640173818993981,-2.,0.0905342497097466));
#303=CARTESIAN_POINT('Ctrl Pts',(-0.130913337985576,-1.99377155254442,0.185117035503625));
#304=CARTESIAN_POINT('Ctrl Pts',(-0.265593337317166,-1.96653007129829,0.377031564235623));
#305=CARTESIAN_POINT('Ctrl Pts',(-0.33337259391879,-1.94551972607856,0.474367047874382));
#306=CARTESIAN_POINT('Ctrl Pts',(-0.464903930839888,-1.88826177399746,0.666737421346569));
#307=CARTESIAN_POINT('Ctrl Pts',(-0.528686263748152,-1.85199522961392,0.761827374527453));
#308=CARTESIAN_POINT('Ctrl Pts',(-0.647603966756283,-1.7655156029989,0.945104192914221));
#309=CARTESIAN_POINT('Ctrl Pts',(-0.702727352591217,-1.71529035623179,1.03329309374483));
#310=CARTESIAN_POINT('Ctrl Pts',(-0.78474433980458,-1.62186422831804,1.17224652728403));
#311=CARTESIAN_POINT('Ctrl Pts',(-0.817418737576605,-1.57880879599952,1.23000018039085));
#312=CARTESIAN_POINT('Ctrl Pts',(-0.877420319215248,-1.48303891981141,1.3439245592205));
#313=CARTESIAN_POINT('Ctrl Pts',(-0.904738859738868,-1.43031658841892,1.40009320630001));
#314=CARTESIAN_POINT('Ctrl Pts',(-0.950354157142292,-1.31709889089554,1.50708896618657));
#315=CARTESIAN_POINT('Ctrl Pts',(-0.968657704006562,-1.25654320212802,1.55796242607697));
#316=CARTESIAN_POINT('Ctrl Pts',(-0.993491280854931,-1.13071815820504,1.65155205394345));
#317=CARTESIAN_POINT('Ctrl Pts',(-1.,-1.06544362460412,1.69426691328694));
#318=CARTESIAN_POINT('Ctrl Pts',(-1.,-0.942345774240327,1.76533749033114));
#319=CARTESIAN_POINT('Ctrl Pts',(-0.994926919740396,-0.880915618828263,
1.79685936501469));
#320=CARTESIAN_POINT('Ctrl Pts',(-0.971763934299734,-0.755591486282577,
1.85305083866454));
#321=CARTESIAN_POINT('Ctrl Pts',(-0.953653440390718,-0.691703901489239,
1.87772620529571));
#322=CARTESIAN_POINT('Ctrl Pts',(-0.903923036252584,-0.567074381733799,
1.91904574383243));
#323=CARTESIAN_POINT('Ctrl Pts',(-0.872231191407431,-0.506188251735317,
1.93576248429048));
#324=CARTESIAN_POINT('Ctrl Pts',(-0.797234517280697,-0.392501507000013,
1.9619749000832));
#325=CARTESIAN_POINT('Ctrl Pts',(-0.753925431387804,-0.33971186901471,1.97150599112484));
#326=CARTESIAN_POINT('Ctrl Pts',(-0.662880152806539,-0.248666590433445,
1.98498458188089));
#327=CARTESIAN_POINT('Ctrl Pts',(-0.612845454894921,-0.2070674411496,1.98959291990768));
#328=CARTESIAN_POINT('Ctrl Pts',(-0.503766981869822,-0.133662639258563,
1.99586853547049));
#329=CARTESIAN_POINT('Ctrl Pts',(-0.444727253757521,-0.101853768284184,
1.99756846699026));
#330=CARTESIAN_POINT('Ctrl Pts',(-0.3215042349789,-0.05074554272905,1.99951965441491));
#331=CARTESIAN_POINT('Ctrl Pts',(-0.257221295984854,-0.0314039501438639,
1.99979368528188));
#332=CARTESIAN_POINT('Ctrl Pts',(-0.127913519974301,-0.00602855457448134,
2.00003116183211));
#333=CARTESIAN_POINT('Ctrl Pts',(-0.0628876630232479,0.,2.));
#334=CARTESIAN_POINT('Ctrl Pts',(0.0628876630232479,0.,2.));
#335=CARTESIAN_POINT('Ctrl Pts',(0.127913519974301,-0.00602855457448134,
2.00003116183211));
#336=CARTESIAN_POINT('Ctrl Pts',(0.257221295984854,-0.0314039501438639,
1.99979368528188));
#337=CARTESIAN_POINT('Ctrl Pts',(0.3215042349789,-0.05074554272905,1.99951965441491));
#338=CARTESIAN_POINT('Ctrl Pts',(0.444727253757521,-0.101853768284184,1.99756846699026));
#339=CARTESIAN_POINT('Ctrl Pts',(0.503766981869821,-0.133662639258563,1.99586853547049));
#340=CARTESIAN_POINT('Ctrl Pts',(0.612845454894921,-0.2070674411496,1.98959291990768));
#341=CARTESIAN_POINT('Ctrl Pts',(0.66288015280654,-0.248666590433445,1.98498458188089));
#342=CARTESIAN_POINT('Ctrl Pts',(0.753925431387805,-0.339711869014709,1.97150599112484));
#343=CARTESIAN_POINT('Ctrl Pts',(0.797234517280696,-0.392501507000013,1.9619749000832));
#344=CARTESIAN_POINT('Ctrl Pts',(0.872231191407431,-0.506188251735317,1.93576248429048));
#345=CARTESIAN_POINT('Ctrl Pts',(0.903923036252584,-0.567074381733799,1.91904574383243));
#346=CARTESIAN_POINT('Ctrl Pts',(0.953653440390718,-0.691703901489239,1.87772620529571));
#347=CARTESIAN_POINT('Ctrl Pts',(0.971763934299734,-0.755591486282577,1.85305083866454));
#348=CARTESIAN_POINT('Ctrl Pts',(0.994926919740396,-0.880915618828263,1.79685936501469));
#349=CARTESIAN_POINT('Ctrl Pts',(1.,-0.942345774240326,1.76533749033114));
#350=CARTESIAN_POINT('Ctrl Pts',(1.,-1.,1.73205080756888));
#351=CARTESIAN_POINT('Ctrl Pts',(1.,-1.,1.73205080756888));
#352=CARTESIAN_POINT('Ctrl Pts',(1.,-1.06544362460412,1.69426691328694));
#353=CARTESIAN_POINT('Ctrl Pts',(0.993491280854931,-1.13071815820504,1.65155205394345));
#354=CARTESIAN_POINT('Ctrl Pts',(0.968657704006562,-1.25654320212802,1.55796242607697));
#355=CARTESIAN_POINT('Ctrl Pts',(0.950354157142292,-1.31709889089554,1.50708896618657));
#356=CARTESIAN_POINT('Ctrl Pts',(0.904738859738868,-1.43031658841892,1.40009320630001));
#357=CARTESIAN_POINT('Ctrl Pts',(0.877420319215249,-1.48303891981141,1.3439245592205));
#358=CARTESIAN_POINT('Ctrl Pts',(0.817418737576605,-1.57880879599952,1.23000018039085));
#359=CARTESIAN_POINT('Ctrl Pts',(0.78474433980458,-1.62186422831804,1.17224652728403));
#360=CARTESIAN_POINT('Ctrl Pts',(0.702727352591217,-1.71529035623179,1.03329309374483));
#361=CARTESIAN_POINT('Ctrl Pts',(0.647603966756284,-1.7655156029989,0.945104192914222));
#362=CARTESIAN_POINT('Ctrl Pts',(0.528686263748153,-1.85199522961392,0.761827374527454));
#363=CARTESIAN_POINT('Ctrl Pts',(0.464903930839888,-1.88826177399746,0.666737421346569));
#364=CARTESIAN_POINT('Ctrl Pts',(0.33337259391879,-1.94551972607856,0.474367047874382));
#365=CARTESIAN_POINT('Ctrl Pts',(0.265593337317166,-1.96653007129829,0.377031564235623));
#366=CARTESIAN_POINT('Ctrl Pts',(0.130913337985575,-1.99377155254442,0.185117035503625));
#367=CARTESIAN_POINT('Ctrl Pts',(0.0640173818993979,-2.,0.0905342497097464));
#368=CARTESIAN_POINT('Ctrl Pts',(0.,-2.,0.));
#369=CARTESIAN_POINT('',(1.,-1.,3.062));
#370=CARTESIAN_POINT('',(1.,-1.,3.062));
#371=CARTESIAN_POINT('Origin',(0.,-1.,3.062));
#372=CARTESIAN_POINT('Origin',(-5.6094700122688E-17,-1.,3.062));
#373=CARTESIAN_POINT('Origin',(3.4375,0.,0.));
#374=CARTESIAN_POINT('',(3.4375,1.917,2.34764791396548E-16));
#375=CARTESIAN_POINT('Origin',(3.4375,0.,0.));
#376=CARTESIAN_POINT('',(-3.4375,1.917,2.34764791396548E-16));
#377=CARTESIAN_POINT('',(3.4375,1.917,-2.34764791396548E-16));
#378=CARTESIAN_POINT('Origin',(-3.4375,0.,0.));
#379=CARTESIAN_POINT('Origin',(3.4375,0.,0.));
#380=CARTESIAN_POINT('',(-3.4375,2.,-2.44929359829471E-16));
#381=CARTESIAN_POINT('Origin',(-3.4375,0.,0.));
#382=CARTESIAN_POINT('',(3.4375,2.,2.44929359829471E-16));
#383=CARTESIAN_POINT('',(3.4375,2.,-2.44929359829471E-16));
#384=CARTESIAN_POINT('Origin',(3.4375,0.,0.));
#385=CARTESIAN_POINT('Origin',(3.4375,-1.12189400245376E-16,-4.58893101297934E-17));
#386=CARTESIAN_POINT('Origin',(-3.4375,0.,0.));
#387=UNCERTAINTY_MEASURE_WITH_UNIT(LENGTH_MEASURE(0.000393700787401575),
#392,'DISTANCE_ACCURACY_VALUE',
'Maximum model space distance between geometric entities at asserted c
onnectivities');
#388=UNCERTAINTY_MEASURE_WITH_UNIT(LENGTH_MEASURE(0.000393700787401575),
#392,'DISTANCE_ACCURACY_VALUE',
'Maximum model space distance between geometric entities at asserted c
onnectivities');
#389=(
GEOMETRIC_REPRESENTATION_CONTEXT(3)
GLOBAL_UNCERTAINTY_ASSIGNED_CONTEXT((#387))
GLOBAL_UNIT_ASSIGNED_CONTEXT((#392,#396,#397))
REPRESENTATION_CONTEXT('','3D')
);
#390=(
GEOMETRIC_REPRESENTATION_CONTEXT(3)
GLOBAL_UNCERTAINTY_ASSIGNED_CONTEXT((#388))
GLOBAL_UNIT_ASSIGNED_CONTEXT((#392,#396,#397))
REPRESENTATION_CONTEXT('','3D')
);
#391=DIMENSIONAL_EXPONENTS(1.,0.,0.,0.,0.,0.,0.);
#392=(
CONVERSION_BASED_UNIT('inch',#395)
LENGTH_UNIT()
NAMED_UNIT(#391)
);
#393=(
LENGTH_UNIT()
NAMED_UNIT(*)
SI_UNIT(.MILLI.,.METRE.)
);
#394=(
LENGTH_UNIT()
NAMED_UNIT(*)
SI_UNIT(.CENTI.,.METRE.)
);
#395=LENGTH_MEASURE_WITH_UNIT(LENGTH_MEASURE(25.4),#393);
#396=(
NAMED_UNIT(*)
PLANE_ANGLE_UNIT()
SI_UNIT($,.RADIAN.)
);
#397=(
NAMED_UNIT(*)
SI_UNIT($,.STERADIAN.)
SOLID_ANGLE_UNIT()
);
#398=SHAPE_DEFINITION_REPRESENTATION(#399,#400);
#399=PRODUCT_DEFINITION_SHAPE('',$,#402);
#400=SHAPE_REPRESENTATION('',(#156),#389);
#401=PRODUCT_DEFINITION_CONTEXT('part definition',#406,'design');
#402=PRODUCT_DEFINITION('7ERWWW-4X2','7ERWWW-4X2',#403,#401);
#403=PRODUCT_DEFINITION_FORMATION('',$,#408);
#404=PRODUCT_RELATED_PRODUCT_CATEGORY('7ERWWW-4X2','7ERWWW-4X2',(#408));
#405=APPLICATION_PROTOCOL_DEFINITION('international standard',
'automotive_design',2009,#406);
#406=APPLICATION_CONTEXT(
'Core Data for Automotive Mechanical Design Process');
#407=PRODUCT_CONTEXT('part definition',#406,'mechanical');
#408=PRODUCT('7ERWWW-4X2','7ERWWW-4X2',$,(#407));
#409=PRESENTATION_STYLE_ASSIGNMENT((#410));
#410=SURFACE_STYLE_USAGE(.BOTH.,#413);
#411=SURFACE_STYLE_RENDERING_WITH_PROPERTIES($,#417,(#412));
#412=SURFACE_STYLE_TRANSPARENT(0.);
#413=SURFACE_SIDE_STYLE('',(#414,#411));
#414=SURFACE_STYLE_FILL_AREA(#415);
#415=FILL_AREA_STYLE('',(#416));
#416=FILL_AREA_STYLE_COLOUR('',#417);
#417=COLOUR_RGB('',0.749019607843137,0.749019607843137,0.749019607843137);
ENDSEC;
END-ISO-10303-21;
