ISO-10303-21;
HEADER;
/* Generated by software containing ST-Developer
 * from STEP Tools, Inc. (www.steptools.com) 
 */

FILE_DESCRIPTION(
/* description */ (''),
/* implementation_level */ '2;1');

FILE_NAME(
/* name */ 
'W:\\AUTOCAD\\AutoCad - Projects\\Numbered\\7ERWWW\\7ERWWW\\7ERWWW-4X1.
5.stp',
/* time_stamp */ '2021-09-01T15:04:32-04:00',
/* author */ ('rick'),
/* organization */ (''),
/* preprocessor_version */ 'ST-DEVELOPER v18',
/* originating_system */ 'Autodesk Inventor 2020',
/* authorisation */ '');

FILE_SCHEMA (('AUTOMOTIVE_DESIGN { 1 0 10303 214 3 1 1 }'));
ENDSEC;

DATA;
#10=MECHANICAL_DESIGN_GEOMETRIC_PRESENTATION_REPRESENTATION('',(#13),#370);
#11=SHAPE_REPRESENTATION_RELATIONSHIP('SRR','None',#380,#12);
#12=ADVANCED_BREP_SHAPE_REPRESENTATION('',(#14),#369);
#13=STYLED_ITEM('',(#389),#14);
#14=MANIFOLD_SOLID_BREP('Solid1',#137);
#15=FACE_BOUND('',#40,.T.);
#16=FACE_BOUND('',#42,.T.);
#17=FACE_BOUND('',#44,.T.);
#18=FACE_BOUND('',#46,.T.);
#19=FACE_BOUND('',#48,.T.);
#20=B_SPLINE_CURVE_WITH_KNOTS('',3,(#220,#221,#222,#223,#224,#225,#226,
#227,#228,#229,#230,#231,#232,#233,#234,#235,#236,#237),.UNSPECIFIED.,.F.,
 .F.,(4,2,2,2,2,2,2,2,4),(1.00929875100685,1.32005989275025,1.63082103449365,
2.25234331798045,2.87386560146725,3.49538788495405,4.73843245192765,5.35995473541446,
5.71959057697129),.UNSPECIFIED.);
#21=B_SPLINE_CURVE_WITH_KNOTS('',3,(#238,#239,#240,#241,#242,#243,#244,
#245,#246,#247,#248,#249,#250,#251,#252,#253,#254,#255,#256,#257,#258,#259,
#260,#261,#262,#263,#264,#265,#266,#267,#268,#269,#270,#271,#272,#273,#274,
#275,#276,#277,#278,#279,#280,#281,#282,#283,#284,#285,#286,#287,#288,#289),
 .UNSPECIFIED.,.F.,.F.,(4,2,2,2,2,2,2,2,2,2,2,2,2,2,2,2,2,2,2,2,2,2,2,2,
2,4),(5.71959057697129,5.98147701890126,6.33028618472384,6.67909535054642,
7.027904516369,7.37671368219158,7.67646968069517,7.97622567919875,8.27598167770234,
8.57573767620592,8.8754936747095,9.17524967321309,9.47500567171667,9.77476167022026,
10.1235708360428,10.4723800018654,10.821189167688,11.1699983335106,11.7915206169974,
12.4130429004842,13.6560874674578,14.2776097509446,14.8991320344314,15.5206543179182,
15.8314154596616,16.142176601405),.UNSPECIFIED.);
#22=B_SPLINE_CURVE_WITH_KNOTS('',3,(#293,#294,#295,#296,#297,#298,#299,
#300,#301,#302,#303,#304,#305,#306,#307,#308,#309,#310,#311,#312,#313,#314,
#315,#316,#317,#318,#319,#320,#321,#322,#323,#324,#325,#326,#327,#328,#329,
#330,#331,#332,#333,#334,#335,#336),.UNSPECIFIED.,.F.,.F.,(4,2,2,2,2,2,
2,2,2,2,2,2,2,2,2,2,2,2,2,2,2,4),(0.,1.22963301408395,2.45926602816791,
3.68889904225186,4.30371554929384,4.91853205633582,5.33469054523954,5.75084903414326,
6.16700752304697,6.58316601195069,6.93780975745565,7.29245350296061,7.64709724846557,
8.00174099397052,8.35638473947548,8.71102848498044,9.06567223048539,9.42031597599035,
9.83647446489407,10.2526329537978,10.6687914427015,11.0849499316052),
 .UNSPECIFIED.);
#23=B_SPLINE_CURVE_WITH_KNOTS('',3,(#337,#338,#339,#340,#341,#342,#343,
#344,#345,#346,#347,#348),.UNSPECIFIED.,.F.,.F.,(4,2,2,2,2,4),(11.0849499316052,
11.6997664386472,12.3145829456892,13.5442159597731,14.7738489738571,16.003481987941),
 .UNSPECIFIED.);
#24=CYLINDRICAL_SURFACE('',#159,0.685);
#25=CYLINDRICAL_SURFACE('',#161,0.75);
#26=CYLINDRICAL_SURFACE('',#164,1.917);
#27=CYLINDRICAL_SURFACE('',#167,2.);
#28=FACE_OUTER_BOUND('',#36,.T.);
#29=FACE_OUTER_BOUND('',#37,.T.);
#30=FACE_OUTER_BOUND('',#38,.T.);
#31=FACE_OUTER_BOUND('',#39,.T.);
#32=FACE_OUTER_BOUND('',#41,.T.);
#33=FACE_OUTER_BOUND('',#43,.T.);
#34=FACE_OUTER_BOUND('',#45,.T.);
#35=FACE_OUTER_BOUND('',#47,.T.);
#36=EDGE_LOOP('',(#93,#94));
#37=EDGE_LOOP('',(#95,#96,#97,#98,#99,#100));
#38=EDGE_LOOP('',(#101,#102,#103,#104,#105));
#39=EDGE_LOOP('',(#106));
#40=EDGE_LOOP('',(#107));
#41=EDGE_LOOP('',(#108,#109,#110,#111));
#42=EDGE_LOOP('',(#112,#113,#114));
#43=EDGE_LOOP('',(#115,#116,#117,#118));
#44=EDGE_LOOP('',(#119,#120));
#45=EDGE_LOOP('',(#121));
#46=EDGE_LOOP('',(#122));
#47=EDGE_LOOP('',(#123));
#48=EDGE_LOOP('',(#124));
#49=CIRCLE('',#158,0.685);
#50=CIRCLE('',#160,0.685);
#51=CIRCLE('',#162,0.75);
#52=CIRCLE('',#165,1.917);
#53=CIRCLE('',#166,1.917);
#54=CIRCLE('',#168,2.);
#55=CIRCLE('',#169,2.);
#56=LINE('',#213,#61);
#57=LINE('',#219,#62);
#58=LINE('',#350,#63);
#59=LINE('',#357,#64);
#60=LINE('',#363,#65);
#61=VECTOR('',#176,0.393700787401575);
#62=VECTOR('',#183,0.685);
#63=VECTOR('',#186,0.75);
#64=VECTOR('',#195,1.917);
#65=VECTOR('',#202,2.);
#66=VERTEX_POINT('',#211);
#67=VERTEX_POINT('',#212);
#68=VERTEX_POINT('',#216);
#69=VERTEX_POINT('',#218);
#70=VERTEX_POINT('',#291);
#71=VERTEX_POINT('',#292);
#72=VERTEX_POINT('',#349);
#73=VERTEX_POINT('',#354);
#74=VERTEX_POINT('',#356);
#75=VERTEX_POINT('',#360);
#76=VERTEX_POINT('',#362);
#77=EDGE_CURVE('',#66,#67,#56,.T.);
#78=EDGE_CURVE('',#67,#66,#49,.T.);
#79=EDGE_CURVE('',#68,#68,#50,.T.);
#80=EDGE_CURVE('',#68,#69,#57,.T.);
#81=EDGE_CURVE('',#67,#69,#20,.T.);
#82=EDGE_CURVE('',#69,#66,#21,.T.);
#83=EDGE_CURVE('',#70,#71,#22,.T.);
#84=EDGE_CURVE('',#71,#70,#23,.T.);
#85=EDGE_CURVE('',#71,#72,#58,.T.);
#86=EDGE_CURVE('',#72,#72,#51,.T.);
#87=EDGE_CURVE('',#73,#73,#52,.T.);
#88=EDGE_CURVE('',#73,#74,#59,.T.);
#89=EDGE_CURVE('',#74,#74,#53,.T.);
#90=EDGE_CURVE('',#75,#75,#54,.T.);
#91=EDGE_CURVE('',#75,#76,#60,.T.);
#92=EDGE_CURVE('',#76,#76,#55,.T.);
#93=ORIENTED_EDGE('',*,*,#77,.F.);
#94=ORIENTED_EDGE('',*,*,#78,.F.);
#95=ORIENTED_EDGE('',*,*,#79,.F.);
#96=ORIENTED_EDGE('',*,*,#80,.T.);
#97=ORIENTED_EDGE('',*,*,#81,.F.);
#98=ORIENTED_EDGE('',*,*,#78,.T.);
#99=ORIENTED_EDGE('',*,*,#82,.F.);
#100=ORIENTED_EDGE('',*,*,#80,.F.);
#101=ORIENTED_EDGE('',*,*,#83,.F.);
#102=ORIENTED_EDGE('',*,*,#84,.F.);
#103=ORIENTED_EDGE('',*,*,#85,.T.);
#104=ORIENTED_EDGE('',*,*,#86,.T.);
#105=ORIENTED_EDGE('',*,*,#85,.F.);
#106=ORIENTED_EDGE('',*,*,#86,.F.);
#107=ORIENTED_EDGE('',*,*,#79,.T.);
#108=ORIENTED_EDGE('',*,*,#87,.F.);
#109=ORIENTED_EDGE('',*,*,#88,.T.);
#110=ORIENTED_EDGE('',*,*,#89,.F.);
#111=ORIENTED_EDGE('',*,*,#88,.F.);
#112=ORIENTED_EDGE('',*,*,#81,.T.);
#113=ORIENTED_EDGE('',*,*,#82,.T.);
#114=ORIENTED_EDGE('',*,*,#77,.T.);
#115=ORIENTED_EDGE('',*,*,#90,.F.);
#116=ORIENTED_EDGE('',*,*,#91,.T.);
#117=ORIENTED_EDGE('',*,*,#92,.T.);
#118=ORIENTED_EDGE('',*,*,#91,.F.);
#119=ORIENTED_EDGE('',*,*,#83,.T.);
#120=ORIENTED_EDGE('',*,*,#84,.T.);
#121=ORIENTED_EDGE('',*,*,#92,.F.);
#122=ORIENTED_EDGE('',*,*,#87,.T.);
#123=ORIENTED_EDGE('',*,*,#90,.T.);
#124=ORIENTED_EDGE('',*,*,#89,.T.);
#125=PLANE('',#157);
#126=PLANE('',#163);
#127=PLANE('',#170);
#128=PLANE('',#171);
#129=ADVANCED_FACE('',(#28),#125,.T.);
#130=ADVANCED_FACE('',(#29),#24,.F.);
#131=ADVANCED_FACE('',(#30),#25,.T.);
#132=ADVANCED_FACE('',(#31,#15),#126,.T.);
#133=ADVANCED_FACE('',(#32,#16),#26,.F.);
#134=ADVANCED_FACE('',(#33,#17),#27,.T.);
#135=ADVANCED_FACE('',(#34,#18),#127,.T.);
#136=ADVANCED_FACE('',(#35,#19),#128,.F.);
#137=CLOSED_SHELL('',(#129,#130,#131,#132,#133,#134,#135,#136));
#138=DERIVED_UNIT_ELEMENT(#140,1.);
#139=DERIVED_UNIT_ELEMENT(#374,3.);
#140=(
MASS_UNIT()
NAMED_UNIT(*)
SI_UNIT($,.GRAM.)
);
#141=DERIVED_UNIT((#138,#139));
#142=MEASURE_REPRESENTATION_ITEM('density measure',
POSITIVE_RATIO_MEASURE(1.),#141);
#143=PROPERTY_DEFINITION_REPRESENTATION(#148,#145);
#144=PROPERTY_DEFINITION_REPRESENTATION(#149,#146);
#145=REPRESENTATION('material name',(#147),#369);
#146=REPRESENTATION('density',(#142),#369);
#147=DESCRIPTIVE_REPRESENTATION_ITEM('Generic','Generic');
#148=PROPERTY_DEFINITION('material property','material name',#382);
#149=PROPERTY_DEFINITION('material property','density of part',#382);
#150=DATE_TIME_ROLE('creation_date');
#151=APPLIED_DATE_AND_TIME_ASSIGNMENT(#152,#150,(#382));
#152=DATE_AND_TIME(#153,#154);
#153=CALENDAR_DATE(2012,29,6);
#154=LOCAL_TIME(12,39,31.,#155);
#155=COORDINATED_UNIVERSAL_TIME_OFFSET(0,0,.BEHIND.);
#156=AXIS2_PLACEMENT_3D('placement',#209,#172,#173);
#157=AXIS2_PLACEMENT_3D('',#210,#174,#175);
#158=AXIS2_PLACEMENT_3D('',#214,#177,#178);
#159=AXIS2_PLACEMENT_3D('',#215,#179,#180);
#160=AXIS2_PLACEMENT_3D('',#217,#181,#182);
#161=AXIS2_PLACEMENT_3D('',#290,#184,#185);
#162=AXIS2_PLACEMENT_3D('',#351,#187,#188);
#163=AXIS2_PLACEMENT_3D('',#352,#189,#190);
#164=AXIS2_PLACEMENT_3D('',#353,#191,#192);
#165=AXIS2_PLACEMENT_3D('',#355,#193,#194);
#166=AXIS2_PLACEMENT_3D('',#358,#196,#197);
#167=AXIS2_PLACEMENT_3D('',#359,#198,#199);
#168=AXIS2_PLACEMENT_3D('',#361,#200,#201);
#169=AXIS2_PLACEMENT_3D('',#364,#203,#204);
#170=AXIS2_PLACEMENT_3D('',#365,#205,#206);
#171=AXIS2_PLACEMENT_3D('',#366,#207,#208);
#172=DIRECTION('axis',(0.,0.,1.));
#173=DIRECTION('refdir',(1.,0.,0.));
#174=DIRECTION('center_axis',(0.,0.,1.));
#175=DIRECTION('ref_axis',(1.,0.,0.));
#176=DIRECTION('',(1.,0.,0.));
#177=DIRECTION('center_axis',(0.,0.,-1.));
#178=DIRECTION('ref_axis',(-1.,0.,0.));
#179=DIRECTION('center_axis',(0.,0.,-1.));
#180=DIRECTION('ref_axis',(-1.,0.,0.));
#181=DIRECTION('center_axis',(0.,0.,-1.));
#182=DIRECTION('ref_axis',(-1.,0.,0.));
#183=DIRECTION('',(0.,0.,-1.));
#184=DIRECTION('center_axis',(0.,0.,-1.));
#185=DIRECTION('ref_axis',(-1.,0.,0.));
#186=DIRECTION('',(0.,0.,1.));
#187=DIRECTION('center_axis',(0.,0.,-1.));
#188=DIRECTION('ref_axis',(-1.,0.,0.));
#189=DIRECTION('center_axis',(0.,0.,1.));
#190=DIRECTION('ref_axis',(1.,0.,0.));
#191=DIRECTION('center_axis',(-1.,0.,0.));
#192=DIRECTION('ref_axis',(0.,-1.,0.));
#193=DIRECTION('center_axis',(-1.,0.,0.));
#194=DIRECTION('ref_axis',(0.,-1.,0.));
#195=DIRECTION('',(-1.,0.,0.));
#196=DIRECTION('center_axis',(1.,0.,0.));
#197=DIRECTION('ref_axis',(0.,-1.,0.));
#198=DIRECTION('center_axis',(-1.,0.,0.));
#199=DIRECTION('ref_axis',(0.,-1.,0.));
#200=DIRECTION('center_axis',(-1.,0.,0.));
#201=DIRECTION('ref_axis',(0.,-1.,0.));
#202=DIRECTION('',(1.,0.,0.));
#203=DIRECTION('center_axis',(-1.,0.,0.));
#204=DIRECTION('ref_axis',(0.,-1.,0.));
#205=DIRECTION('center_axis',(1.,0.,0.));
#206=DIRECTION('ref_axis',(0.,0.,-1.));
#207=DIRECTION('center_axis',(1.,0.,0.));
#208=DIRECTION('ref_axis',(0.,0.,-1.));
#209=CARTESIAN_POINT('',(0.,0.,0.));
#210=CARTESIAN_POINT('Origin',(-4.0486538955201E-17,-1.25,0.));
#211=CARTESIAN_POINT('',(-0.155999999999999,-1.917,0.));
#212=CARTESIAN_POINT('',(0.155999999999999,-1.917,0.));
#213=CARTESIAN_POINT('',(3.4375,-1.917,0.));
#214=CARTESIAN_POINT('Origin',(0.,-1.25,0.));
#215=CARTESIAN_POINT('Origin',(0.,-1.25,2.906));
#216=CARTESIAN_POINT('',(0.685,-1.25,2.906));
#217=CARTESIAN_POINT('Origin',(0.,-1.25,2.906));
#218=CARTESIAN_POINT('',(0.685,-1.24999999999476,1.4534059997214));
#219=CARTESIAN_POINT('',(0.685,-1.25,2.906));
#220=CARTESIAN_POINT('Ctrl Pts',(0.156,-1.917,3.3328545522704E-16));
#221=CARTESIAN_POINT('Ctrl Pts',(0.156,-1.917,0.0407823020660634));
#222=CARTESIAN_POINT('Ctrl Pts',(0.161614899250714,-1.91572300559385,0.0791665054241542));
#223=CARTESIAN_POINT('Ctrl Pts',(0.179102390182413,-1.91123280703949,0.153137623148495));
#224=CARTESIAN_POINT('Ctrl Pts',(0.190886202234144,-1.90801120049146,0.188744987548594));
#225=CARTESIAN_POINT('Ctrl Pts',(0.230439091175875,-1.89566617976219,0.293788325684733));
#226=CARTESIAN_POINT('Ctrl Pts',(0.262106842295926,-1.88389367636755,0.361419234015466));
#227=CARTESIAN_POINT('Ctrl Pts',(0.327112127142441,-1.85292522955766,0.496333914809974));
#228=CARTESIAN_POINT('Ctrl Pts',(0.360639090598901,-1.83375088965679,0.56315713105478));
#229=CARTESIAN_POINT('Ctrl Pts',(0.426144377995054,-1.78779793832497,0.695389684341423));
#230=CARTESIAN_POINT('Ctrl Pts',(0.45818345716909,-1.7610196731864,0.760769036153156));
#231=CARTESIAN_POINT('Ctrl Pts',(0.548627511788199,-1.66907700264929,0.953600721966769));
#232=CARTESIAN_POINT('Ctrl Pts',(0.601360963057589,-1.59269550470523,1.07714281968676));
#233=CARTESIAN_POINT('Ctrl Pts',(0.655761580013562,-1.45411840179798,1.25137337674156));
#234=CARTESIAN_POINT('Ctrl Pts',(0.66974969347491,-1.40396267207398,1.30754904783508));
#235=CARTESIAN_POINT('Ctrl Pts',(0.682385158424243,-1.31778453124446,1.39295032743546));
#236=CARTESIAN_POINT('Ctrl Pts',(0.685000000000531,-1.28471260543514,1.42355146711664));
#237=CARTESIAN_POINT('Ctrl Pts',(0.685,-1.24999999998953,1.4534059997214));
#238=CARTESIAN_POINT('Ctrl Pts',(0.685,-1.24999999998953,1.4534059997214));
#239=CARTESIAN_POINT('Ctrl Pts',(0.684999999999614,-1.22472231717873,1.47514603899419));
#240=CARTESIAN_POINT('Ctrl Pts',(0.683611067065238,-1.19857401797396,1.49648946936073));
#241=CARTESIAN_POINT('Ctrl Pts',(0.676321642403764,-1.13539900424119,1.54526248944363));
#242=CARTESIAN_POINT('Ctrl Pts',(0.668944269979998,-1.09704463220188,1.57276103628576));
#243=CARTESIAN_POINT('Ctrl Pts',(0.646123307496476,-1.01890163891353,1.62447642404664));
#244=CARTESIAN_POINT('Ctrl Pts',(0.630665342530557,-0.979118626957388,1.64869539618948));
#245=CARTESIAN_POINT('Ctrl Pts',(0.591353680103987,-0.901551486536533,1.69235771985211));
#246=CARTESIAN_POINT('Ctrl Pts',(0.567454400468757,-0.863705696451105,1.71185029221706));
#247=CARTESIAN_POINT('Ctrl Pts',(0.512370558047987,-0.793158455085367,1.74565707340825));
#248=CARTESIAN_POINT('Ctrl Pts',(0.481182100804245,-0.760467635577798,1.7599871200557));
#249=CARTESIAN_POINT('Ctrl Pts',(0.418991616983242,-0.706756539247101,1.78216315014261));
#250=CARTESIAN_POINT('Ctrl Pts',(0.386808417346309,-0.683208354916442,1.79125922153355));
#251=CARTESIAN_POINT('Ctrl Pts',(0.317144390556857,-0.641482985945352,1.80662193985099));
#252=CARTESIAN_POINT('Ctrl Pts',(0.279665338779753,-0.623307819051517,1.812902114557));
#253=CARTESIAN_POINT('Ctrl Pts',(0.201766142842792,-0.594068413625087,1.82269289975839));
#254=CARTESIAN_POINT('Ctrl Pts',(0.161286534479701,-0.582981712205005,1.82621996951926));
#255=CARTESIAN_POINT('Ctrl Pts',(0.080072626987745,-0.568446541399672,1.83079643416296));
#256=CARTESIAN_POINT('Ctrl Pts',(0.039338057546402,-0.565,1.83184715519609));
#257=CARTESIAN_POINT('Ctrl Pts',(-0.039338057546402,-0.565,1.83184715519609));
#258=CARTESIAN_POINT('Ctrl Pts',(-0.0800726269877451,-0.568446541399672,
1.83079643416297));
#259=CARTESIAN_POINT('Ctrl Pts',(-0.161286534479701,-0.582981712205005,
1.82621996951926));
#260=CARTESIAN_POINT('Ctrl Pts',(-0.201766142842792,-0.594068413625087,
1.82269289975839));
#261=CARTESIAN_POINT('Ctrl Pts',(-0.279665338779753,-0.623307819051517,
1.812902114557));
#262=CARTESIAN_POINT('Ctrl Pts',(-0.317144390556856,-0.641482985945352,
1.806621939851));
#263=CARTESIAN_POINT('Ctrl Pts',(-0.386808417346309,-0.683208354916442,
1.79125922153355));
#264=CARTESIAN_POINT('Ctrl Pts',(-0.418991616983242,-0.706756539247101,
1.78216315014261));
#265=CARTESIAN_POINT('Ctrl Pts',(-0.481182100804245,-0.760467635577797,
1.7599871200557));
#266=CARTESIAN_POINT('Ctrl Pts',(-0.512370558047987,-0.793158455085367,
1.74565707340825));
#267=CARTESIAN_POINT('Ctrl Pts',(-0.567454400468757,-0.863705696451106,
1.71185029221706));
#268=CARTESIAN_POINT('Ctrl Pts',(-0.591353680103987,-0.901551486536533,
1.69235771985211));
#269=CARTESIAN_POINT('Ctrl Pts',(-0.630665342530557,-0.979118626957388,
1.64869539618948));
#270=CARTESIAN_POINT('Ctrl Pts',(-0.646123307496476,-1.01890163891353,1.62447642404664));
#271=CARTESIAN_POINT('Ctrl Pts',(-0.668944269979998,-1.09704463220188,1.57276103628576));
#272=CARTESIAN_POINT('Ctrl Pts',(-0.676321642403763,-1.13539900424119,1.54526248944363));
#273=CARTESIAN_POINT('Ctrl Pts',(-0.687903775804771,-1.23577749371659,1.46776726160271));
#274=CARTESIAN_POINT('Ctrl Pts',(-0.685757761548295,-1.29478223824201,1.41574526403125));
#275=CARTESIAN_POINT('Ctrl Pts',(-0.66974969347491,-1.40396267207398,1.30754904783508));
#276=CARTESIAN_POINT('Ctrl Pts',(-0.655761580013562,-1.45411840179798,1.25137337674156));
#277=CARTESIAN_POINT('Ctrl Pts',(-0.601360963057589,-1.59269550470523,1.07714281968676));
#278=CARTESIAN_POINT('Ctrl Pts',(-0.548627511788199,-1.66907700264929,0.953600721966769));
#279=CARTESIAN_POINT('Ctrl Pts',(-0.45818345716909,-1.7610196731864,0.760769036153156));
#280=CARTESIAN_POINT('Ctrl Pts',(-0.426144377995054,-1.78779793832497,0.695389684341422));
#281=CARTESIAN_POINT('Ctrl Pts',(-0.360639090598901,-1.83375088965679,0.563157131054779));
#282=CARTESIAN_POINT('Ctrl Pts',(-0.327112127142441,-1.85292522955766,0.496333914809974));
#283=CARTESIAN_POINT('Ctrl Pts',(-0.262106842295926,-1.88389367636755,0.361419234015466));
#284=CARTESIAN_POINT('Ctrl Pts',(-0.230439091175874,-1.89566617976219,0.293788325684733));
#285=CARTESIAN_POINT('Ctrl Pts',(-0.190886202234144,-1.90801120049146,0.188744987548593));
#286=CARTESIAN_POINT('Ctrl Pts',(-0.179102390182413,-1.91123280703949,0.153137623148495));
#287=CARTESIAN_POINT('Ctrl Pts',(-0.161614899250714,-1.91572300559385,0.0791665054241541));
#288=CARTESIAN_POINT('Ctrl Pts',(-0.156,-1.917,0.0407823020660634));
#289=CARTESIAN_POINT('Ctrl Pts',(-0.156,-1.917,3.05966975290397E-16));
#290=CARTESIAN_POINT('Origin',(0.,-1.25,2.906));
#291=CARTESIAN_POINT('',(0.,-2.,0.));
#292=CARTESIAN_POINT('',(0.75,-1.25,1.5612494995996));
#293=CARTESIAN_POINT('Ctrl Pts',(0.,-2.,0.));
#294=CARTESIAN_POINT('Ctrl Pts',(-0.0842722963690844,-2.,0.137616083704571));
#295=CARTESIAN_POINT('Ctrl Pts',(-0.171548347521172,-1.98560248873121,0.280028430234583));
#296=CARTESIAN_POINT('Ctrl Pts',(-0.34012277976073,-1.92443036815763,0.563560959249262));
#297=CARTESIAN_POINT('Ctrl Pts',(-0.421438592628312,-1.87770479315963,0.704681354418601));
#298=CARTESIAN_POINT('Ctrl Pts',(-0.565292253852886,-1.75205723397007,0.976040998444089));
#299=CARTESIAN_POINT('Ctrl Pts',(-0.627882727528391,-1.67335874702594,1.1060701656785));
#300=CARTESIAN_POINT('Ctrl Pts',(-0.696851877540636,-1.53220525201456,1.28772172644851));
#301=CARTESIAN_POINT('Ctrl Pts',(-0.715659170423292,-1.48132682263193,1.34602588804542));
#302=CARTESIAN_POINT('Ctrl Pts',(-0.74220411049662,-1.37170951281448,1.4575760217525));
#303=CARTESIAN_POINT('Ctrl Pts',(-0.75,-1.31298438083759,1.5108216364892));
#304=CARTESIAN_POINT('Ctrl Pts',(-0.75,-1.20736697949114,1.59538323392569));
#305=CARTESIAN_POINT('Ctrl Pts',(-0.746309780460729,-1.16159523590265,1.62908398098291));
#306=CARTESIAN_POINT('Ctrl Pts',(-0.729003471043025,-1.06738666518619,1.69230724629195));
#307=CARTESIAN_POINT('Ctrl Pts',(-0.715367965947453,-1.01895434345841,1.721831161842));
#308=CARTESIAN_POINT('Ctrl Pts',(-0.67723064377308,-0.923668663650043,1.77476945193329));
#309=CARTESIAN_POINT('Ctrl Pts',(-0.652674079567437,-0.876724775701484,
1.79825099332968));
#310=CARTESIAN_POINT('Ctrl Pts',(-0.593591654147878,-0.788516743678506,
1.83863925551383));
#311=CARTESIAN_POINT('Ctrl Pts',(-0.559059585833822,-0.747266846039229,
1.85556800591438));
#312=CARTESIAN_POINT('Ctrl Pts',(-0.488717475183743,-0.679316109157706,
1.88139529709974));
#313=CARTESIAN_POINT('Ctrl Pts',(-0.452047948390293,-0.649624103248575,
1.89176021636758));
#314=CARTESIAN_POINT('Ctrl Pts',(-0.371923498083178,-0.596952163372957,
1.90903543868886));
#315=CARTESIAN_POINT('Ctrl Pts',(-0.328471798377903,-0.573973923699325,
1.91596585396539));
#316=CARTESIAN_POINT('Ctrl Pts',(-0.237643684775615,-0.536956870057121,
1.92666771840198));
#317=CARTESIAN_POINT('Ctrl Pts',(-0.190189544046608,-0.522885281437736,
1.93046170350667));
#318=CARTESIAN_POINT('Ctrl Pts',(-0.0946385226671398,-0.504405320068417,
1.93537249108279));
#319=CARTESIAN_POINT('Ctrl Pts',(-0.0465411739507817,-0.5,1.93649167310371));
#320=CARTESIAN_POINT('Ctrl Pts',(0.0465411739507819,-0.5,1.93649167310371));
#321=CARTESIAN_POINT('Ctrl Pts',(0.0946385226671403,-0.504405320068417,
1.93537249108279));
#322=CARTESIAN_POINT('Ctrl Pts',(0.190189544046609,-0.522885281437736,1.93046170350667));
#323=CARTESIAN_POINT('Ctrl Pts',(0.237643684775615,-0.536956870057121,1.92666771840198));
#324=CARTESIAN_POINT('Ctrl Pts',(0.328471798377903,-0.573973923699325,1.91596585396539));
#325=CARTESIAN_POINT('Ctrl Pts',(0.371923498083178,-0.596952163372957,1.90903543868886));
#326=CARTESIAN_POINT('Ctrl Pts',(0.452047948390293,-0.649624103248575,1.89176021636758));
#327=CARTESIAN_POINT('Ctrl Pts',(0.488717475183743,-0.679316109157706,1.88139529709974));
#328=CARTESIAN_POINT('Ctrl Pts',(0.559059585833823,-0.747266846039229,1.85556800591438));
#329=CARTESIAN_POINT('Ctrl Pts',(0.593591654147878,-0.788516743678506,1.83863925551383));
#330=CARTESIAN_POINT('Ctrl Pts',(0.652674079567437,-0.876724775701484,1.79825099332968));
#331=CARTESIAN_POINT('Ctrl Pts',(0.67723064377308,-0.923668663650043,1.77476945193329));
#332=CARTESIAN_POINT('Ctrl Pts',(0.715367965947453,-1.01895434345841,1.721831161842));
#333=CARTESIAN_POINT('Ctrl Pts',(0.729003471043025,-1.06738666518619,1.69230724629195));
#334=CARTESIAN_POINT('Ctrl Pts',(0.746309780460729,-1.16159523590265,1.62908398098291));
#335=CARTESIAN_POINT('Ctrl Pts',(0.75,-1.20736697949114,1.59538323392569));
#336=CARTESIAN_POINT('Ctrl Pts',(0.75,-1.25,1.5612494995996));
#337=CARTESIAN_POINT('Ctrl Pts',(0.75,-1.25,1.5612494995996));
#338=CARTESIAN_POINT('Ctrl Pts',(0.75,-1.31298438083759,1.5108216364892));
#339=CARTESIAN_POINT('Ctrl Pts',(0.74220411049662,-1.37170951281448,1.4575760217525));
#340=CARTESIAN_POINT('Ctrl Pts',(0.715659170423293,-1.48132682263193,1.34602588804542));
#341=CARTESIAN_POINT('Ctrl Pts',(0.696851877540637,-1.53220525201456,1.28772172644851));
#342=CARTESIAN_POINT('Ctrl Pts',(0.627882727528391,-1.67335874702594,1.1060701656785));
#343=CARTESIAN_POINT('Ctrl Pts',(0.565292253852886,-1.75205723397007,0.976040998444089));
#344=CARTESIAN_POINT('Ctrl Pts',(0.421438592628313,-1.87770479315963,0.704681354418601));
#345=CARTESIAN_POINT('Ctrl Pts',(0.340122779760729,-1.92443036815763,0.563560959249263));
#346=CARTESIAN_POINT('Ctrl Pts',(0.171548347521171,-1.98560248873121,0.280028430234583));
#347=CARTESIAN_POINT('Ctrl Pts',(0.0842722963690845,-2.,0.137616083704571));
#348=CARTESIAN_POINT('Ctrl Pts',(0.,-2.,0.));
#349=CARTESIAN_POINT('',(0.75,-1.25,2.906));
#350=CARTESIAN_POINT('',(0.75,-1.25,2.906));
#351=CARTESIAN_POINT('Origin',(0.,-1.25,2.906));
#352=CARTESIAN_POINT('Origin',(-3.82469159145332E-17,-1.25,2.906));
#353=CARTESIAN_POINT('Origin',(3.4375,0.,0.));
#354=CARTESIAN_POINT('',(3.4375,1.917,2.34764791396548E-16));
#355=CARTESIAN_POINT('Origin',(3.4375,0.,0.));
#356=CARTESIAN_POINT('',(-3.4375,1.917,2.34764791396548E-16));
#357=CARTESIAN_POINT('',(3.4375,1.917,-2.34764791396548E-16));
#358=CARTESIAN_POINT('Origin',(-3.4375,0.,0.));
#359=CARTESIAN_POINT('Origin',(3.4375,0.,0.));
#360=CARTESIAN_POINT('',(-3.4375,2.,-2.44929359829471E-16));
#361=CARTESIAN_POINT('Origin',(-3.4375,0.,0.));
#362=CARTESIAN_POINT('',(3.4375,2.,2.44929359829471E-16));
#363=CARTESIAN_POINT('',(3.4375,2.,-2.44929359829471E-16));
#364=CARTESIAN_POINT('Origin',(3.4375,0.,0.));
#365=CARTESIAN_POINT('Origin',(3.4375,-1.12189400245376E-16,-4.58893101297934E-17));
#366=CARTESIAN_POINT('Origin',(-3.4375,0.,0.));
#367=UNCERTAINTY_MEASURE_WITH_UNIT(LENGTH_MEASURE(0.000393700787401575),
#372,'DISTANCE_ACCURACY_VALUE',
'Maximum model space distance between geometric entities at asserted c
onnectivities');
#368=UNCERTAINTY_MEASURE_WITH_UNIT(LENGTH_MEASURE(0.000393700787401575),
#372,'DISTANCE_ACCURACY_VALUE',
'Maximum model space distance between geometric entities at asserted c
onnectivities');
#369=(
GEOMETRIC_REPRESENTATION_CONTEXT(3)
GLOBAL_UNCERTAINTY_ASSIGNED_CONTEXT((#367))
GLOBAL_UNIT_ASSIGNED_CONTEXT((#372,#376,#377))
REPRESENTATION_CONTEXT('','3D')
);
#370=(
GEOMETRIC_REPRESENTATION_CONTEXT(3)
GLOBAL_UNCERTAINTY_ASSIGNED_CONTEXT((#368))
GLOBAL_UNIT_ASSIGNED_CONTEXT((#372,#376,#377))
REPRESENTATION_CONTEXT('','3D')
);
#371=DIMENSIONAL_EXPONENTS(1.,0.,0.,0.,0.,0.,0.);
#372=(
CONVERSION_BASED_UNIT('inch',#375)
LENGTH_UNIT()
NAMED_UNIT(#371)
);
#373=(
LENGTH_UNIT()
NAMED_UNIT(*)
SI_UNIT(.MILLI.,.METRE.)
);
#374=(
LENGTH_UNIT()
NAMED_UNIT(*)
SI_UNIT(.CENTI.,.METRE.)
);
#375=LENGTH_MEASURE_WITH_UNIT(LENGTH_MEASURE(25.4),#373);
#376=(
NAMED_UNIT(*)
PLANE_ANGLE_UNIT()
SI_UNIT($,.RADIAN.)
);
#377=(
NAMED_UNIT(*)
SI_UNIT($,.STERADIAN.)
SOLID_ANGLE_UNIT()
);
#378=SHAPE_DEFINITION_REPRESENTATION(#379,#380);
#379=PRODUCT_DEFINITION_SHAPE('',$,#382);
#380=SHAPE_REPRESENTATION('',(#156),#369);
#381=PRODUCT_DEFINITION_CONTEXT('part definition',#386,'design');
#382=PRODUCT_DEFINITION('7ERWWW-4X1.5','7ERWWW-4X1.5',#383,#381);
#383=PRODUCT_DEFINITION_FORMATION('',$,#388);
#384=PRODUCT_RELATED_PRODUCT_CATEGORY('7ERWWW-4X1.5','7ERWWW-4X1.5',(#388));
#385=APPLICATION_PROTOCOL_DEFINITION('international standard',
'automotive_design',2009,#386);
#386=APPLICATION_CONTEXT(
'Core Data for Automotive Mechanical Design Process');
#387=PRODUCT_CONTEXT('part definition',#386,'mechanical');
#388=PRODUCT('7ERWWW-4X1.5','7ERWWW-4X1.5',$,(#387));
#389=PRESENTATION_STYLE_ASSIGNMENT((#390));
#390=SURFACE_STYLE_USAGE(.BOTH.,#393);
#391=SURFACE_STYLE_RENDERING_WITH_PROPERTIES($,#397,(#392));
#392=SURFACE_STYLE_TRANSPARENT(0.);
#393=SURFACE_SIDE_STYLE('',(#394,#391));
#394=SURFACE_STYLE_FILL_AREA(#395);
#395=FILL_AREA_STYLE('',(#396));
#396=FILL_AREA_STYLE_COLOUR('',#397);
#397=COLOUR_RGB('',0.749019607843137,0.749019607843137,0.749019607843137);
ENDSEC;
END-ISO-10303-21;
