ISO-10303-21;
HEADER;
/* Generated by software containing ST-Developer
 * from STEP Tools, Inc. (www.steptools.com) 
 */

FILE_DESCRIPTION(
/* description */ (''),
/* implementation_level */ '2;1');

FILE_NAME(
/* name */ 
'W:\\AUTOCAD\\AutoCad - Projects\\Numbered\\32WMP\\STEP FILES\\32WMP-2
X1.stp',
/* time_stamp */ '2021-06-14T16:38:12-04:00',
/* author */ ('ken'),
/* organization */ (''),
/* preprocessor_version */ 'ST-DEVELOPER v18',
/* originating_system */ 'Autodesk Inventor 2020',
/* authorisation */ '');

FILE_SCHEMA (('AUTOMOTIVE_DESIGN { 1 0 10303 214 3 1 1 }'));
ENDSEC;

DATA;
#10=MECHANICAL_DESIGN_GEOMETRIC_PRESENTATION_REPRESENTATION('',(#13),#427);
#11=SHAPE_REPRESENTATION_RELATIONSHIP('SRR','None',#437,#12);
#12=ADVANCED_BREP_SHAPE_REPRESENTATION('',(#14),#426);
#13=STYLED_ITEM('',(#446),#14);
#14=MANIFOLD_SOLID_BREP('Solid2',#221);
#15=TOROIDAL_SURFACE('',#258,1.109,0.047);
#16=CONICAL_SURFACE('',#254,1.05844286854517,0.401425727958696);
#17=CONICAL_SURFACE('',#263,1.15955713145483,0.401425727958696);
#18=CONICAL_SURFACE('',#272,1.13298977741481,1.22173047639603);
#19=FACE_BOUND('',#41,.T.);
#20=FACE_BOUND('',#46,.T.);
#21=FACE_BOUND('',#50,.T.);
#22=FACE_BOUND('',#52,.T.);
#23=PLANE('',#251);
#24=PLANE('',#266);
#25=PLANE('',#275);
#26=PLANE('',#276);
#27=FACE_OUTER_BOUND('',#38,.T.);
#28=FACE_OUTER_BOUND('',#39,.T.);
#29=FACE_OUTER_BOUND('',#40,.T.);
#30=FACE_OUTER_BOUND('',#42,.T.);
#31=FACE_OUTER_BOUND('',#43,.T.);
#32=FACE_OUTER_BOUND('',#44,.T.);
#33=FACE_OUTER_BOUND('',#45,.T.);
#34=FACE_OUTER_BOUND('',#47,.T.);
#35=FACE_OUTER_BOUND('',#48,.T.);
#36=FACE_OUTER_BOUND('',#49,.T.);
#37=FACE_OUTER_BOUND('',#51,.T.);
#38=EDGE_LOOP('',(#145,#146,#147,#148,#149,#150));
#39=EDGE_LOOP('',(#151,#152,#153,#154,#155,#156));
#40=EDGE_LOOP('',(#157,#158));
#41=EDGE_LOOP('',(#159,#160));
#42=EDGE_LOOP('',(#161,#162,#163,#164,#165,#166,#167));
#43=EDGE_LOOP('',(#168,#169,#170,#171,#172,#173,#174,#175));
#44=EDGE_LOOP('',(#176,#177,#178,#179,#180,#181,#182));
#45=EDGE_LOOP('',(#183,#184));
#46=EDGE_LOOP('',(#185,#186));
#47=EDGE_LOOP('',(#187,#188,#189,#190,#191,#192));
#48=EDGE_LOOP('',(#193,#194,#195,#196,#197,#198));
#49=EDGE_LOOP('',(#199,#200));
#50=EDGE_LOOP('',(#201,#202));
#51=EDGE_LOOP('',(#203,#204));
#52=EDGE_LOOP('',(#205,#206));
#53=LINE('',#364,#59);
#54=LINE('',#374,#60);
#55=LINE('',#389,#61);
#56=LINE('',#401,#62);
#57=LINE('',#415,#63);
#58=LINE('',#421,#64);
#59=VECTOR('',#285,0.435);
#60=VECTOR('',#296,0.5);
#61=VECTOR('',#313,1.05844286854517);
#62=VECTOR('',#328,1.15955713145483);
#63=VECTOR('',#345,1.258);
#64=VECTOR('',#352,1.13298977741481);
#65=CIRCLE('',#242,0.435);
#66=CIRCLE('',#243,0.435);
#67=CIRCLE('',#244,0.435);
#68=CIRCLE('',#245,0.435);
#69=CIRCLE('',#247,0.5);
#70=CIRCLE('',#248,0.5);
#71=CIRCLE('',#249,0.5);
#72=CIRCLE('',#250,0.5);
#73=CIRCLE('',#252,1.0511494652026);
#74=CIRCLE('',#253,1.0511494652026);
#75=CIRCLE('',#255,1.06573627188774);
#76=CIRCLE('',#256,1.06573627188774);
#77=CIRCLE('',#257,1.06573627188774);
#78=CIRCLE('',#259,0.047);
#79=CIRCLE('',#260,1.15226372811226);
#80=CIRCLE('',#261,1.15226372811226);
#81=CIRCLE('',#262,1.15226372811226);
#82=CIRCLE('',#264,1.1668505347974);
#83=CIRCLE('',#265,1.1668505347974);
#84=CIRCLE('',#267,1.258);
#85=CIRCLE('',#268,1.258);
#86=CIRCLE('',#270,1.258);
#87=CIRCLE('',#271,1.258);
#88=CIRCLE('',#273,1.00797955482963);
#89=CIRCLE('',#274,1.00797955482963);
#90=VERTEX_POINT('',#359);
#91=VERTEX_POINT('',#360);
#92=VERTEX_POINT('',#363);
#93=VERTEX_POINT('',#365);
#94=VERTEX_POINT('',#369);
#95=VERTEX_POINT('',#370);
#96=VERTEX_POINT('',#373);
#97=VERTEX_POINT('',#375);
#98=VERTEX_POINT('',#379);
#99=VERTEX_POINT('',#380);
#100=VERTEX_POINT('',#384);
#101=VERTEX_POINT('',#385);
#102=VERTEX_POINT('',#387);
#103=VERTEX_POINT('',#392);
#104=VERTEX_POINT('',#394);
#105=VERTEX_POINT('',#396);
#106=VERTEX_POINT('',#400);
#107=VERTEX_POINT('',#402);
#108=VERTEX_POINT('',#406);
#109=VERTEX_POINT('',#407);
#110=VERTEX_POINT('',#411);
#111=VERTEX_POINT('',#412);
#112=VERTEX_POINT('',#417);
#113=VERTEX_POINT('',#418);
#114=EDGE_CURVE('',#90,#91,#65,.T.);
#115=EDGE_CURVE('',#91,#90,#66,.T.);
#116=EDGE_CURVE('',#91,#92,#53,.T.);
#117=EDGE_CURVE('',#93,#92,#67,.T.);
#118=EDGE_CURVE('',#92,#93,#68,.T.);
#119=EDGE_CURVE('',#94,#95,#69,.T.);
#120=EDGE_CURVE('',#95,#94,#70,.T.);
#121=EDGE_CURVE('',#95,#96,#54,.T.);
#122=EDGE_CURVE('',#97,#96,#71,.T.);
#123=EDGE_CURVE('',#96,#97,#72,.T.);
#124=EDGE_CURVE('',#98,#99,#73,.T.);
#125=EDGE_CURVE('',#99,#98,#74,.T.);
#126=EDGE_CURVE('',#100,#101,#75,.T.);
#127=EDGE_CURVE('',#102,#100,#76,.T.);
#128=EDGE_CURVE('',#102,#99,#55,.T.);
#129=EDGE_CURVE('',#101,#102,#77,.T.);
#130=EDGE_CURVE('',#101,#103,#78,.T.);
#131=EDGE_CURVE('',#104,#103,#79,.T.);
#132=EDGE_CURVE('',#105,#104,#80,.T.);
#133=EDGE_CURVE('',#103,#105,#81,.T.);
#134=EDGE_CURVE('',#105,#106,#56,.T.);
#135=EDGE_CURVE('',#107,#106,#82,.T.);
#136=EDGE_CURVE('',#106,#107,#83,.T.);
#137=EDGE_CURVE('',#108,#109,#84,.T.);
#138=EDGE_CURVE('',#109,#108,#85,.T.);
#139=EDGE_CURVE('',#110,#111,#86,.T.);
#140=EDGE_CURVE('',#111,#110,#87,.T.);
#141=EDGE_CURVE('',#111,#109,#57,.T.);
#142=EDGE_CURVE('',#112,#113,#88,.T.);
#143=EDGE_CURVE('',#113,#112,#89,.T.);
#144=EDGE_CURVE('',#113,#111,#58,.T.);
#145=ORIENTED_EDGE('',*,*,#114,.F.);
#146=ORIENTED_EDGE('',*,*,#115,.F.);
#147=ORIENTED_EDGE('',*,*,#116,.T.);
#148=ORIENTED_EDGE('',*,*,#117,.F.);
#149=ORIENTED_EDGE('',*,*,#118,.F.);
#150=ORIENTED_EDGE('',*,*,#116,.F.);
#151=ORIENTED_EDGE('',*,*,#119,.F.);
#152=ORIENTED_EDGE('',*,*,#120,.F.);
#153=ORIENTED_EDGE('',*,*,#121,.T.);
#154=ORIENTED_EDGE('',*,*,#122,.F.);
#155=ORIENTED_EDGE('',*,*,#123,.F.);
#156=ORIENTED_EDGE('',*,*,#121,.F.);
#157=ORIENTED_EDGE('',*,*,#124,.F.);
#158=ORIENTED_EDGE('',*,*,#125,.F.);
#159=ORIENTED_EDGE('',*,*,#117,.T.);
#160=ORIENTED_EDGE('',*,*,#118,.T.);
#161=ORIENTED_EDGE('',*,*,#126,.F.);
#162=ORIENTED_EDGE('',*,*,#127,.F.);
#163=ORIENTED_EDGE('',*,*,#128,.T.);
#164=ORIENTED_EDGE('',*,*,#125,.T.);
#165=ORIENTED_EDGE('',*,*,#124,.T.);
#166=ORIENTED_EDGE('',*,*,#128,.F.);
#167=ORIENTED_EDGE('',*,*,#129,.F.);
#168=ORIENTED_EDGE('',*,*,#126,.T.);
#169=ORIENTED_EDGE('',*,*,#130,.T.);
#170=ORIENTED_EDGE('',*,*,#131,.F.);
#171=ORIENTED_EDGE('',*,*,#132,.F.);
#172=ORIENTED_EDGE('',*,*,#133,.F.);
#173=ORIENTED_EDGE('',*,*,#130,.F.);
#174=ORIENTED_EDGE('',*,*,#129,.T.);
#175=ORIENTED_EDGE('',*,*,#127,.T.);
#176=ORIENTED_EDGE('',*,*,#131,.T.);
#177=ORIENTED_EDGE('',*,*,#133,.T.);
#178=ORIENTED_EDGE('',*,*,#134,.T.);
#179=ORIENTED_EDGE('',*,*,#135,.F.);
#180=ORIENTED_EDGE('',*,*,#136,.F.);
#181=ORIENTED_EDGE('',*,*,#134,.F.);
#182=ORIENTED_EDGE('',*,*,#132,.T.);
#183=ORIENTED_EDGE('',*,*,#137,.F.);
#184=ORIENTED_EDGE('',*,*,#138,.F.);
#185=ORIENTED_EDGE('',*,*,#135,.T.);
#186=ORIENTED_EDGE('',*,*,#136,.T.);
#187=ORIENTED_EDGE('',*,*,#139,.F.);
#188=ORIENTED_EDGE('',*,*,#140,.F.);
#189=ORIENTED_EDGE('',*,*,#141,.T.);
#190=ORIENTED_EDGE('',*,*,#138,.T.);
#191=ORIENTED_EDGE('',*,*,#137,.T.);
#192=ORIENTED_EDGE('',*,*,#141,.F.);
#193=ORIENTED_EDGE('',*,*,#142,.F.);
#194=ORIENTED_EDGE('',*,*,#143,.F.);
#195=ORIENTED_EDGE('',*,*,#144,.T.);
#196=ORIENTED_EDGE('',*,*,#140,.T.);
#197=ORIENTED_EDGE('',*,*,#139,.T.);
#198=ORIENTED_EDGE('',*,*,#144,.F.);
#199=ORIENTED_EDGE('',*,*,#142,.T.);
#200=ORIENTED_EDGE('',*,*,#143,.T.);
#201=ORIENTED_EDGE('',*,*,#122,.T.);
#202=ORIENTED_EDGE('',*,*,#123,.T.);
#203=ORIENTED_EDGE('',*,*,#119,.T.);
#204=ORIENTED_EDGE('',*,*,#120,.T.);
#205=ORIENTED_EDGE('',*,*,#114,.T.);
#206=ORIENTED_EDGE('',*,*,#115,.T.);
#207=CYLINDRICAL_SURFACE('',#241,0.435);
#208=CYLINDRICAL_SURFACE('',#246,0.5);
#209=CYLINDRICAL_SURFACE('',#269,1.258);
#210=ADVANCED_FACE('',(#27),#207,.F.);
#211=ADVANCED_FACE('',(#28),#208,.T.);
#212=ADVANCED_FACE('',(#29,#19),#23,.T.);
#213=ADVANCED_FACE('',(#30),#16,.T.);
#214=ADVANCED_FACE('',(#31),#15,.F.);
#215=ADVANCED_FACE('',(#32),#17,.F.);
#216=ADVANCED_FACE('',(#33,#20),#24,.T.);
#217=ADVANCED_FACE('',(#34),#209,.T.);
#218=ADVANCED_FACE('',(#35),#18,.T.);
#219=ADVANCED_FACE('',(#36,#21),#25,.T.);
#220=ADVANCED_FACE('',(#37,#22),#26,.T.);
#221=CLOSED_SHELL('',(#210,#211,#212,#213,#214,#215,#216,#217,#218,#219,
#220));
#222=DERIVED_UNIT_ELEMENT(#224,1.);
#223=DERIVED_UNIT_ELEMENT(#431,3.);
#224=(
MASS_UNIT()
NAMED_UNIT(*)
SI_UNIT($,.GRAM.)
);
#225=DERIVED_UNIT((#222,#223));
#226=MEASURE_REPRESENTATION_ITEM('density measure',
POSITIVE_RATIO_MEASURE(1.),#225);
#227=PROPERTY_DEFINITION_REPRESENTATION(#232,#229);
#228=PROPERTY_DEFINITION_REPRESENTATION(#233,#230);
#229=REPRESENTATION('material name',(#231),#426);
#230=REPRESENTATION('density',(#226),#426);
#231=DESCRIPTIVE_REPRESENTATION_ITEM('Generic','Generic');
#232=PROPERTY_DEFINITION('material property','material name',#439);
#233=PROPERTY_DEFINITION('material property','density of part',#439);
#234=DATE_TIME_ROLE('creation_date');
#235=APPLIED_DATE_AND_TIME_ASSIGNMENT(#236,#234,(#439));
#236=DATE_AND_TIME(#237,#238);
#237=CALENDAR_DATE(2017,30,1);
#238=LOCAL_TIME(13,33,13.,#239);
#239=COORDINATED_UNIVERSAL_TIME_OFFSET(0,0,.BEHIND.);
#240=AXIS2_PLACEMENT_3D('placement',#357,#277,#278);
#241=AXIS2_PLACEMENT_3D('',#358,#279,#280);
#242=AXIS2_PLACEMENT_3D('',#361,#281,#282);
#243=AXIS2_PLACEMENT_3D('',#362,#283,#284);
#244=AXIS2_PLACEMENT_3D('',#366,#286,#287);
#245=AXIS2_PLACEMENT_3D('',#367,#288,#289);
#246=AXIS2_PLACEMENT_3D('',#368,#290,#291);
#247=AXIS2_PLACEMENT_3D('',#371,#292,#293);
#248=AXIS2_PLACEMENT_3D('',#372,#294,#295);
#249=AXIS2_PLACEMENT_3D('',#376,#297,#298);
#250=AXIS2_PLACEMENT_3D('',#377,#299,#300);
#251=AXIS2_PLACEMENT_3D('',#378,#301,#302);
#252=AXIS2_PLACEMENT_3D('',#381,#303,#304);
#253=AXIS2_PLACEMENT_3D('',#382,#305,#306);
#254=AXIS2_PLACEMENT_3D('',#383,#307,#308);
#255=AXIS2_PLACEMENT_3D('',#386,#309,#310);
#256=AXIS2_PLACEMENT_3D('',#388,#311,#312);
#257=AXIS2_PLACEMENT_3D('',#390,#314,#315);
#258=AXIS2_PLACEMENT_3D('',#391,#316,#317);
#259=AXIS2_PLACEMENT_3D('',#393,#318,#319);
#260=AXIS2_PLACEMENT_3D('',#395,#320,#321);
#261=AXIS2_PLACEMENT_3D('',#397,#322,#323);
#262=AXIS2_PLACEMENT_3D('',#398,#324,#325);
#263=AXIS2_PLACEMENT_3D('',#399,#326,#327);
#264=AXIS2_PLACEMENT_3D('',#403,#329,#330);
#265=AXIS2_PLACEMENT_3D('',#404,#331,#332);
#266=AXIS2_PLACEMENT_3D('',#405,#333,#334);
#267=AXIS2_PLACEMENT_3D('',#408,#335,#336);
#268=AXIS2_PLACEMENT_3D('',#409,#337,#338);
#269=AXIS2_PLACEMENT_3D('',#410,#339,#340);
#270=AXIS2_PLACEMENT_3D('',#413,#341,#342);
#271=AXIS2_PLACEMENT_3D('',#414,#343,#344);
#272=AXIS2_PLACEMENT_3D('',#416,#346,#347);
#273=AXIS2_PLACEMENT_3D('',#419,#348,#349);
#274=AXIS2_PLACEMENT_3D('',#420,#350,#351);
#275=AXIS2_PLACEMENT_3D('',#422,#353,#354);
#276=AXIS2_PLACEMENT_3D('',#423,#355,#356);
#277=DIRECTION('axis',(0.,0.,1.));
#278=DIRECTION('refdir',(1.,0.,0.));
#279=DIRECTION('center_axis',(-1.,0.,0.));
#280=DIRECTION('ref_axis',(0.,1.,0.));
#281=DIRECTION('center_axis',(-1.,0.,0.));
#282=DIRECTION('ref_axis',(0.,1.,0.));
#283=DIRECTION('center_axis',(-1.,0.,0.));
#284=DIRECTION('ref_axis',(0.,1.,0.));
#285=DIRECTION('',(-1.,0.,0.));
#286=DIRECTION('center_axis',(1.,0.,0.));
#287=DIRECTION('ref_axis',(0.,1.,0.));
#288=DIRECTION('center_axis',(1.,0.,0.));
#289=DIRECTION('ref_axis',(0.,1.,0.));
#290=DIRECTION('center_axis',(-1.,0.,0.));
#291=DIRECTION('ref_axis',(0.,1.,0.));
#292=DIRECTION('center_axis',(1.,0.,0.));
#293=DIRECTION('ref_axis',(0.,1.,0.));
#294=DIRECTION('center_axis',(1.,0.,0.));
#295=DIRECTION('ref_axis',(0.,1.,0.));
#296=DIRECTION('',(-1.,0.,0.));
#297=DIRECTION('center_axis',(-1.,0.,0.));
#298=DIRECTION('ref_axis',(0.,0.,1.));
#299=DIRECTION('center_axis',(-1.,0.,0.));
#300=DIRECTION('ref_axis',(0.,0.,1.));
#301=DIRECTION('center_axis',(-1.,0.,0.));
#302=DIRECTION('ref_axis',(0.,0.,1.));
#303=DIRECTION('center_axis',(1.,0.,0.));
#304=DIRECTION('ref_axis',(0.,0.,-1.));
#305=DIRECTION('center_axis',(1.,0.,0.));
#306=DIRECTION('ref_axis',(0.,0.,-1.));
#307=DIRECTION('center_axis',(1.,0.,0.));
#308=DIRECTION('ref_axis',(0.,1.,0.));
#309=DIRECTION('center_axis',(1.,0.,0.));
#310=DIRECTION('ref_axis',(0.,0.,-1.));
#311=DIRECTION('center_axis',(1.,0.,0.));
#312=DIRECTION('ref_axis',(0.,0.,-1.));
#313=DIRECTION('',(-0.92050485345244,0.390731128489274,4.78507625831623E-17));
#314=DIRECTION('center_axis',(1.,0.,0.));
#315=DIRECTION('ref_axis',(0.,0.,-1.));
#316=DIRECTION('center_axis',(1.,0.,0.));
#317=DIRECTION('ref_axis',(0.,0.,-1.));
#318=DIRECTION('center_axis',(0.,-1.,-1.22464679914735E-16));
#319=DIRECTION('ref_axis',(0.,-1.22464679914735E-16,1.));
#320=DIRECTION('center_axis',(1.,0.,0.));
#321=DIRECTION('ref_axis',(0.,0.,-1.));
#322=DIRECTION('center_axis',(1.,0.,0.));
#323=DIRECTION('ref_axis',(0.,0.,-1.));
#324=DIRECTION('center_axis',(1.,0.,0.));
#325=DIRECTION('ref_axis',(0.,0.,-1.));
#326=DIRECTION('center_axis',(-1.,0.,0.));
#327=DIRECTION('ref_axis',(0.,1.,0.));
#328=DIRECTION('',(-0.92050485345244,-0.390731128489274,-4.78507625831623E-17));
#329=DIRECTION('center_axis',(1.,0.,0.));
#330=DIRECTION('ref_axis',(0.,0.,-1.));
#331=DIRECTION('center_axis',(1.,0.,0.));
#332=DIRECTION('ref_axis',(0.,0.,-1.));
#333=DIRECTION('center_axis',(-1.,0.,0.));
#334=DIRECTION('ref_axis',(0.,0.,1.));
#335=DIRECTION('center_axis',(1.,0.,0.));
#336=DIRECTION('ref_axis',(0.,0.,-1.));
#337=DIRECTION('center_axis',(1.,0.,0.));
#338=DIRECTION('ref_axis',(0.,0.,-1.));
#339=DIRECTION('center_axis',(1.,0.,0.));
#340=DIRECTION('ref_axis',(0.,1.,0.));
#341=DIRECTION('center_axis',(1.,0.,0.));
#342=DIRECTION('ref_axis',(0.,0.,-1.));
#343=DIRECTION('center_axis',(1.,0.,0.));
#344=DIRECTION('ref_axis',(0.,0.,-1.));
#345=DIRECTION('',(-1.,0.,0.));
#346=DIRECTION('center_axis',(-1.,0.,0.));
#347=DIRECTION('ref_axis',(0.,1.,0.));
#348=DIRECTION('center_axis',(1.,0.,0.));
#349=DIRECTION('ref_axis',(0.,0.,-1.));
#350=DIRECTION('center_axis',(1.,0.,0.));
#351=DIRECTION('ref_axis',(0.,0.,-1.));
#352=DIRECTION('',(-0.342020143325668,-0.939692620785909,-1.15079156022785E-16));
#353=DIRECTION('center_axis',(1.,0.,0.));
#354=DIRECTION('ref_axis',(0.,0.,-1.));
#355=DIRECTION('center_axis',(1.,0.,0.));
#356=DIRECTION('ref_axis',(0.,0.,-1.));
#357=CARTESIAN_POINT('',(0.,0.,0.));
#358=CARTESIAN_POINT('Origin',(0.25,-0.5,0.));
#359=CARTESIAN_POINT('',(0.5,-0.0650000000000001,0.));
#360=CARTESIAN_POINT('',(0.5,-0.935,5.32721357629099E-17));
#361=CARTESIAN_POINT('Origin',(0.5,-0.5,0.));
#362=CARTESIAN_POINT('Origin',(0.5,-0.5,0.));
#363=CARTESIAN_POINT('',(0.,-0.935,5.32721357629099E-17));
#364=CARTESIAN_POINT('',(0.25,-0.935,5.32721357629099E-17));
#365=CARTESIAN_POINT('',(0.,-0.0650000000000001,0.));
#366=CARTESIAN_POINT('Origin',(0.,-0.5,0.));
#367=CARTESIAN_POINT('Origin',(0.,-0.5,0.));
#368=CARTESIAN_POINT('Origin',(0.3515,-0.5,0.));
#369=CARTESIAN_POINT('',(0.5,-8.74191357972564E-17,0.));
#370=CARTESIAN_POINT('',(0.5,-1.,6.12323399573677E-17));
#371=CARTESIAN_POINT('Origin',(0.5,-0.5,0.));
#372=CARTESIAN_POINT('Origin',(0.5,-0.5,0.));
#373=CARTESIAN_POINT('',(0.203,-1.,6.12323399573677E-17));
#374=CARTESIAN_POINT('',(0.3515,-1.,6.12323399573677E-17));
#375=CARTESIAN_POINT('',(0.203,-8.74191357972564E-17,0.));
#376=CARTESIAN_POINT('Origin',(0.203,-0.5,0.));
#377=CARTESIAN_POINT('Origin',(0.203,-0.5,0.));
#378=CARTESIAN_POINT('Origin',(-2.06884615795987E-46,1.0511494652026,0.));
#379=CARTESIAN_POINT('',(-2.06884615795987E-46,1.0511494652026,0.));
#380=CARTESIAN_POINT('',(2.73184799366426E-17,-1.0511494652026,-1.28728682798581E-16));
#381=CARTESIAN_POINT('Origin',(0.,0.,0.));
#382=CARTESIAN_POINT('Origin',(0.,0.,0.));
#383=CARTESIAN_POINT('Origin',(0.017182181519498,0.,0.));
#384=CARTESIAN_POINT('',(0.0343643630389959,1.06573627188774,0.));
#385=CARTESIAN_POINT('',(0.0343643630389958,-1.30515051410255E-16,1.06573627188774));
#386=CARTESIAN_POINT('Origin',(0.0343643630389958,0.,0.));
#387=CARTESIAN_POINT('',(0.0343643630389959,-1.06573627188774,-1.30515051410255E-16));
#388=CARTESIAN_POINT('Origin',(0.0343643630389958,0.,0.));
#389=CARTESIAN_POINT('',(0.017182181519498,-1.05844286854517,-1.29621867104418E-16));
#390=CARTESIAN_POINT('Origin',(0.0343643630389958,0.,0.));
#391=CARTESIAN_POINT('Origin',(0.016,0.,0.));
#392=CARTESIAN_POINT('',(0.0343643630389958,-1.41111608640628E-16,1.15226372811226));
#393=CARTESIAN_POINT('Origin',(0.016,-1.35813330025441E-16,1.109));
#394=CARTESIAN_POINT('',(0.0343643630389959,1.15226372811226,0.));
#395=CARTESIAN_POINT('Origin',(0.0343643630389958,0.,0.));
#396=CARTESIAN_POINT('',(0.034364363038996,-1.15226372811226,-1.41111608640628E-16));
#397=CARTESIAN_POINT('Origin',(0.0343643630389958,0.,0.));
#398=CARTESIAN_POINT('Origin',(0.0343643630389958,0.,0.));
#399=CARTESIAN_POINT('Origin',(0.017182181519498,0.,0.));
#400=CARTESIAN_POINT('',(2.45866319429784E-17,-1.1668505347974,-1.42897977252302E-16));
#401=CARTESIAN_POINT('',(0.017182181519498,-1.15955713145483,-1.42004792946465E-16));
#402=CARTESIAN_POINT('',(0.,1.1668505347974,0.));
#403=CARTESIAN_POINT('Origin',(0.,0.,0.));
#404=CARTESIAN_POINT('Origin',(0.,0.,0.));
#405=CARTESIAN_POINT('Origin',(-8.16675412762994E-17,1.258,0.));
#406=CARTESIAN_POINT('',(-8.16675412762994E-17,1.258,0.));
#407=CARTESIAN_POINT('',(-8.74191357972564E-17,-1.258,-1.54060567332737E-16));
#408=CARTESIAN_POINT('Origin',(-8.74191357972564E-17,0.,0.));
#409=CARTESIAN_POINT('Origin',(-8.74191357972564E-17,0.,0.));
#410=CARTESIAN_POINT('Origin',(0.0559999999999999,0.,0.));
#411=CARTESIAN_POINT('',(0.112,1.258,0.));
#412=CARTESIAN_POINT('',(0.112,-1.258,-1.54060567332737E-16));
#413=CARTESIAN_POINT('Origin',(0.112,0.,0.));
#414=CARTESIAN_POINT('Origin',(0.112,0.,0.));
#415=CARTESIAN_POINT('',(0.0559999999999999,-1.258,-1.54060567332737E-16));
#416=CARTESIAN_POINT('Origin',(0.1575,0.,0.));
#417=CARTESIAN_POINT('',(0.203,1.00797955482963,0.));
#418=CARTESIAN_POINT('',(0.203,-1.00797955482963,-1.23441893542808E-16));
#419=CARTESIAN_POINT('Origin',(0.203,0.,0.));
#420=CARTESIAN_POINT('Origin',(0.203,0.,0.));
#421=CARTESIAN_POINT('',(0.1575,-1.13298977741481,-1.38751230437772E-16));
#422=CARTESIAN_POINT('Origin',(0.203,1.,0.));
#423=CARTESIAN_POINT('Origin',(0.5,0.,0.));
#424=UNCERTAINTY_MEASURE_WITH_UNIT(LENGTH_MEASURE(0.000393700787401575),
#429,'DISTANCE_ACCURACY_VALUE',
'Maximum model space distance between geometric entities at asserted c
onnectivities');
#425=UNCERTAINTY_MEASURE_WITH_UNIT(LENGTH_MEASURE(0.000393700787401575),
#429,'DISTANCE_ACCURACY_VALUE',
'Maximum model space distance between geometric entities at asserted c
onnectivities');
#426=(
GEOMETRIC_REPRESENTATION_CONTEXT(3)
GLOBAL_UNCERTAINTY_ASSIGNED_CONTEXT((#424))
GLOBAL_UNIT_ASSIGNED_CONTEXT((#429,#433,#434))
REPRESENTATION_CONTEXT('','3D')
);
#427=(
GEOMETRIC_REPRESENTATION_CONTEXT(3)
GLOBAL_UNCERTAINTY_ASSIGNED_CONTEXT((#425))
GLOBAL_UNIT_ASSIGNED_CONTEXT((#429,#433,#434))
REPRESENTATION_CONTEXT('','3D')
);
#428=DIMENSIONAL_EXPONENTS(1.,0.,0.,0.,0.,0.,0.);
#429=(
CONVERSION_BASED_UNIT('inch',#432)
LENGTH_UNIT()
NAMED_UNIT(#428)
);
#430=(
LENGTH_UNIT()
NAMED_UNIT(*)
SI_UNIT(.MILLI.,.METRE.)
);
#431=(
LENGTH_UNIT()
NAMED_UNIT(*)
SI_UNIT(.CENTI.,.METRE.)
);
#432=LENGTH_MEASURE_WITH_UNIT(LENGTH_MEASURE(25.4),#430);
#433=(
NAMED_UNIT(*)
PLANE_ANGLE_UNIT()
SI_UNIT($,.RADIAN.)
);
#434=(
NAMED_UNIT(*)
SI_UNIT($,.STERADIAN.)
SOLID_ANGLE_UNIT()
);
#435=SHAPE_DEFINITION_REPRESENTATION(#436,#437);
#436=PRODUCT_DEFINITION_SHAPE('',$,#439);
#437=SHAPE_REPRESENTATION('',(#240),#426);
#438=PRODUCT_DEFINITION_CONTEXT('part definition',#443,'design');
#439=PRODUCT_DEFINITION('32WMP-2X1','32WMP-2X1',#440,#438);
#440=PRODUCT_DEFINITION_FORMATION('',$,#445);
#441=PRODUCT_RELATED_PRODUCT_CATEGORY('32WMP-2X1','32WMP-2X1',(#445));
#442=APPLICATION_PROTOCOL_DEFINITION('international standard',
'automotive_design',2009,#443);
#443=APPLICATION_CONTEXT(
'Core Data for Automotive Mechanical Design Process');
#444=PRODUCT_CONTEXT('part definition',#443,'mechanical');
#445=PRODUCT('32WMP-2X1','32WMP-2X1',$,(#444));
#446=PRESENTATION_STYLE_ASSIGNMENT((#447));
#447=SURFACE_STYLE_USAGE(.BOTH.,#450);
#448=SURFACE_STYLE_RENDERING_WITH_PROPERTIES($,#454,(#449));
#449=SURFACE_STYLE_TRANSPARENT(0.);
#450=SURFACE_SIDE_STYLE('',(#451,#448));
#451=SURFACE_STYLE_FILL_AREA(#452);
#452=FILL_AREA_STYLE('',(#453));
#453=FILL_AREA_STYLE_COLOUR('',#454);
#454=COLOUR_RGB('',0.749019607843137,0.749019607843137,0.749019607843137);
ENDSEC;
END-ISO-10303-21;
