ISO-10303-21;
HEADER;
/* Generated by software containing ST-Developer
 * from STEP Tools, Inc. (www.steptools.com) 
 */

FILE_DESCRIPTION(
/* description */ (''),
/* implementation_level */ '2;1');

FILE_NAME(
/* name */ 'W:\\AUTOCAD\\AutoCad - Projects\\Numbered\\19MPX\\19MPX-3.
stp',
/* time_stamp */ '2020-05-27T15:30:54-04:00',
/* author */ ('rick'),
/* organization */ (''),
/* preprocessor_version */ 'ST-DEVELOPER v15.2',
/* originating_system */ 'Autodesk Inventor 2014',
/* authorisation */ '');

FILE_SCHEMA (('AUTOMOTIVE_DESIGN { 1 0 10303 214 3 1 1 }'));
ENDSEC;

DATA;
#10=MECHANICAL_DESIGN_GEOMETRIC_PRESENTATION_REPRESENTATION('',(#13),#383);
#11=SHAPE_REPRESENTATION_RELATIONSHIP('SRR','None',#395,#12);
#12=ADVANCED_BREP_SHAPE_REPRESENTATION($,(#213),#382);
#13=STYLED_ITEM('',(#404),#213);
#14=PLANE('',#237);
#15=PLANE('',#242);
#16=PLANE('',#250);
#17=CYLINDRICAL_SURFACE('',#220,1.7895);
#18=CYLINDRICAL_SURFACE('',#224,1.612);
#19=CYLINDRICAL_SURFACE('',#232,1.75);
#20=CONICAL_SURFACE('',#218,1.70075,70.);
#21=CONICAL_SURFACE('',#228,1.681,44.8147466366323);
#22=CONICAL_SURFACE('',#239,1.5325,9.83356396420711);
#23=CONICAL_SURFACE('',#244,1.58994286854517,23.0000000000003);
#24=CONICAL_SURFACE('',#248,1.69105713145483,23.0000000000003);
#25=FACE_BOUND('',#62,.T.);
#26=FACE_BOUND('',#64,.T.);
#27=FACE_BOUND('',#66,.T.);
#28=FACE_BOUND('',#68,.T.);
#29=FACE_BOUND('',#70,.T.);
#30=FACE_BOUND('',#72,.T.);
#31=FACE_BOUND('',#74,.T.);
#32=FACE_BOUND('',#76,.T.);
#33=FACE_BOUND('',#78,.T.);
#34=FACE_BOUND('',#80,.T.);
#35=FACE_BOUND('',#82,.T.);
#36=FACE_BOUND('',#84,.T.);
#37=FACE_BOUND('',#86,.T.);
#38=FACE_BOUND('',#88,.T.);
#39=FACE_BOUND('',#90,.T.);
#40=FACE_BOUND('',#92,.T.);
#41=FACE_BOUND('',#94,.T.);
#42=FACE_BOUND('',#96,.T.);
#43=FACE_OUTER_BOUND('',#61,.T.);
#44=FACE_OUTER_BOUND('',#63,.T.);
#45=FACE_OUTER_BOUND('',#65,.T.);
#46=FACE_OUTER_BOUND('',#67,.T.);
#47=FACE_OUTER_BOUND('',#69,.T.);
#48=FACE_OUTER_BOUND('',#71,.T.);
#49=FACE_OUTER_BOUND('',#73,.T.);
#50=FACE_OUTER_BOUND('',#75,.T.);
#51=FACE_OUTER_BOUND('',#77,.T.);
#52=FACE_OUTER_BOUND('',#79,.T.);
#53=FACE_OUTER_BOUND('',#81,.T.);
#54=FACE_OUTER_BOUND('',#83,.T.);
#55=FACE_OUTER_BOUND('',#85,.T.);
#56=FACE_OUTER_BOUND('',#87,.T.);
#57=FACE_OUTER_BOUND('',#89,.T.);
#58=FACE_OUTER_BOUND('',#91,.T.);
#59=FACE_OUTER_BOUND('',#93,.T.);
#60=FACE_OUTER_BOUND('',#95,.T.);
#61=EDGE_LOOP('',(#151));
#62=EDGE_LOOP('',(#152));
#63=EDGE_LOOP('',(#153));
#64=EDGE_LOOP('',(#154));
#65=EDGE_LOOP('',(#155));
#66=EDGE_LOOP('',(#156));
#67=EDGE_LOOP('',(#157));
#68=EDGE_LOOP('',(#158));
#69=EDGE_LOOP('',(#159));
#70=EDGE_LOOP('',(#160));
#71=EDGE_LOOP('',(#161));
#72=EDGE_LOOP('',(#162));
#73=EDGE_LOOP('',(#163));
#74=EDGE_LOOP('',(#164));
#75=EDGE_LOOP('',(#165));
#76=EDGE_LOOP('',(#166));
#77=EDGE_LOOP('',(#167));
#78=EDGE_LOOP('',(#168));
#79=EDGE_LOOP('',(#169));
#80=EDGE_LOOP('',(#170));
#81=EDGE_LOOP('',(#171));
#82=EDGE_LOOP('',(#172));
#83=EDGE_LOOP('',(#173));
#84=EDGE_LOOP('',(#174));
#85=EDGE_LOOP('',(#175));
#86=EDGE_LOOP('',(#176));
#87=EDGE_LOOP('',(#177));
#88=EDGE_LOOP('',(#178));
#89=EDGE_LOOP('',(#179));
#90=EDGE_LOOP('',(#180));
#91=EDGE_LOOP('',(#181));
#92=EDGE_LOOP('',(#182));
#93=EDGE_LOOP('',(#183));
#94=EDGE_LOOP('',(#184));
#95=EDGE_LOOP('',(#185));
#96=EDGE_LOOP('',(#186));
#97=CIRCLE('',#216,1.7895);
#98=CIRCLE('',#217,1.77963030214988);
#99=CIRCLE('',#219,1.64160909355034);
#100=CIRCLE('',#221,1.7895);
#101=CIRCLE('',#223,1.612);
#102=CIRCLE('',#225,1.612);
#103=CIRCLE('',#227,1.6294366386315);
#104=CIRCLE('',#229,1.7325633613685);
#105=CIRCLE('',#231,1.75);
#106=CIRCLE('',#233,1.75);
#107=CIRCLE('',#235,1.63420788859573);
#108=CIRCLE('',#236,1.62928134849373);
#109=CIRCLE('',#238,1.745);
#110=CIRCLE('',#240,1.435);
#111=CIRCLE('',#243,1.5826494652026);
#112=CIRCLE('',#245,1.59723627188774);
#113=CIRCLE('',#247,1.68376372811226);
#114=CIRCLE('',#249,1.6983505347974);
#115=VERTEX_POINT('',#327);
#116=VERTEX_POINT('',#329);
#117=VERTEX_POINT('',#332);
#118=VERTEX_POINT('',#335);
#119=VERTEX_POINT('',#338);
#120=VERTEX_POINT('',#341);
#121=VERTEX_POINT('',#344);
#122=VERTEX_POINT('',#347);
#123=VERTEX_POINT('',#350);
#124=VERTEX_POINT('',#353);
#125=VERTEX_POINT('',#356);
#126=VERTEX_POINT('',#358);
#127=VERTEX_POINT('',#361);
#128=VERTEX_POINT('',#364);
#129=VERTEX_POINT('',#368);
#130=VERTEX_POINT('',#371);
#131=VERTEX_POINT('',#374);
#132=VERTEX_POINT('',#377);
#133=EDGE_CURVE('',#115,#115,#97,.T.);
#134=EDGE_CURVE('',#116,#116,#98,.T.);
#135=EDGE_CURVE('',#117,#117,#99,.T.);
#136=EDGE_CURVE('',#118,#118,#100,.T.);
#137=EDGE_CURVE('',#119,#119,#101,.T.);
#138=EDGE_CURVE('',#120,#120,#102,.T.);
#139=EDGE_CURVE('',#121,#121,#103,.T.);
#140=EDGE_CURVE('',#122,#122,#104,.T.);
#141=EDGE_CURVE('',#123,#123,#105,.T.);
#142=EDGE_CURVE('',#124,#124,#106,.T.);
#143=EDGE_CURVE('',#125,#125,#107,.T.);
#144=EDGE_CURVE('',#126,#126,#108,.T.);
#145=EDGE_CURVE('',#127,#127,#109,.T.);
#146=EDGE_CURVE('',#128,#128,#110,.T.);
#147=EDGE_CURVE('',#129,#129,#111,.T.);
#148=EDGE_CURVE('',#130,#130,#112,.T.);
#149=EDGE_CURVE('',#131,#131,#113,.T.);
#150=EDGE_CURVE('',#132,#132,#114,.T.);
#151=ORIENTED_EDGE('',*,*,#133,.T.);
#152=ORIENTED_EDGE('',*,*,#134,.T.);
#153=ORIENTED_EDGE('',*,*,#135,.F.);
#154=ORIENTED_EDGE('',*,*,#134,.F.);
#155=ORIENTED_EDGE('',*,*,#136,.T.);
#156=ORIENTED_EDGE('',*,*,#133,.F.);
#157=ORIENTED_EDGE('',*,*,#135,.T.);
#158=ORIENTED_EDGE('',*,*,#137,.T.);
#159=ORIENTED_EDGE('',*,*,#138,.F.);
#160=ORIENTED_EDGE('',*,*,#137,.F.);
#161=ORIENTED_EDGE('',*,*,#138,.T.);
#162=ORIENTED_EDGE('',*,*,#139,.T.);
#163=ORIENTED_EDGE('',*,*,#140,.F.);
#164=ORIENTED_EDGE('',*,*,#139,.F.);
#165=ORIENTED_EDGE('',*,*,#140,.T.);
#166=ORIENTED_EDGE('',*,*,#141,.T.);
#167=ORIENTED_EDGE('',*,*,#142,.F.);
#168=ORIENTED_EDGE('',*,*,#141,.F.);
#169=ORIENTED_EDGE('',*,*,#143,.T.);
#170=ORIENTED_EDGE('',*,*,#144,.T.);
#171=ORIENTED_EDGE('',*,*,#145,.F.);
#172=ORIENTED_EDGE('',*,*,#143,.F.);
#173=ORIENTED_EDGE('',*,*,#146,.F.);
#174=ORIENTED_EDGE('',*,*,#144,.F.);
#175=ORIENTED_EDGE('',*,*,#142,.T.);
#176=ORIENTED_EDGE('',*,*,#145,.T.);
#177=ORIENTED_EDGE('',*,*,#147,.F.);
#178=ORIENTED_EDGE('',*,*,#146,.T.);
#179=ORIENTED_EDGE('',*,*,#148,.F.);
#180=ORIENTED_EDGE('',*,*,#147,.T.);
#181=ORIENTED_EDGE('',*,*,#149,.F.);
#182=ORIENTED_EDGE('',*,*,#148,.T.);
#183=ORIENTED_EDGE('',*,*,#150,.F.);
#184=ORIENTED_EDGE('',*,*,#149,.T.);
#185=ORIENTED_EDGE('',*,*,#136,.F.);
#186=ORIENTED_EDGE('',*,*,#150,.T.);
#187=TOROIDAL_SURFACE('',#215,1.7745,0.015);
#188=TOROIDAL_SURFACE('',#222,1.657,0.045);
#189=TOROIDAL_SURFACE('',#226,1.672,0.06);
#190=TOROIDAL_SURFACE('',#230,1.69,0.06);
#191=TOROIDAL_SURFACE('',#234,1.63420788859573,0.005);
#192=TOROIDAL_SURFACE('',#241,1.745,0.005);
#193=TOROIDAL_SURFACE('',#246,1.6405,0.047);
#194=ADVANCED_FACE('',(#43,#25),#187,.T.);
#195=ADVANCED_FACE('',(#44,#26),#20,.T.);
#196=ADVANCED_FACE('',(#45,#27),#17,.T.);
#197=ADVANCED_FACE('',(#46,#28),#188,.F.);
#198=ADVANCED_FACE('',(#47,#29),#18,.T.);
#199=ADVANCED_FACE('',(#48,#30),#189,.F.);
#200=ADVANCED_FACE('',(#49,#31),#21,.T.);
#201=ADVANCED_FACE('',(#50,#32),#190,.T.);
#202=ADVANCED_FACE('',(#51,#33),#19,.T.);
#203=ADVANCED_FACE('',(#52,#34),#191,.T.);
#204=ADVANCED_FACE('',(#53,#35),#14,.T.);
#205=ADVANCED_FACE('',(#54,#36),#22,.F.);
#206=ADVANCED_FACE('',(#55,#37),#192,.T.);
#207=ADVANCED_FACE('',(#56,#38),#15,.T.);
#208=ADVANCED_FACE('',(#57,#39),#23,.T.);
#209=ADVANCED_FACE('',(#58,#40),#193,.F.);
#210=ADVANCED_FACE('',(#59,#41),#24,.F.);
#211=ADVANCED_FACE('',(#60,#42),#16,.T.);
#212=CLOSED_SHELL('',(#194,#195,#196,#197,#198,#199,#200,#201,#202,#203,
#204,#205,#206,#207,#208,#209,#210,#211));
#213=MANIFOLD_SOLID_BREP('Solid1',#212);
#214=AXIS2_PLACEMENT_3D('placement',#325,#251,#252);
#215=AXIS2_PLACEMENT_3D('',#326,#253,#254);
#216=AXIS2_PLACEMENT_3D('',#328,#255,#256);
#217=AXIS2_PLACEMENT_3D('',#330,#257,#258);
#218=AXIS2_PLACEMENT_3D('',#331,#259,#260);
#219=AXIS2_PLACEMENT_3D('',#333,#261,#262);
#220=AXIS2_PLACEMENT_3D('',#334,#263,#264);
#221=AXIS2_PLACEMENT_3D('',#336,#265,#266);
#222=AXIS2_PLACEMENT_3D('',#337,#267,#268);
#223=AXIS2_PLACEMENT_3D('',#339,#269,#270);
#224=AXIS2_PLACEMENT_3D('',#340,#271,#272);
#225=AXIS2_PLACEMENT_3D('',#342,#273,#274);
#226=AXIS2_PLACEMENT_3D('',#343,#275,#276);
#227=AXIS2_PLACEMENT_3D('',#345,#277,#278);
#228=AXIS2_PLACEMENT_3D('',#346,#279,#280);
#229=AXIS2_PLACEMENT_3D('',#348,#281,#282);
#230=AXIS2_PLACEMENT_3D('',#349,#283,#284);
#231=AXIS2_PLACEMENT_3D('',#351,#285,#286);
#232=AXIS2_PLACEMENT_3D('',#352,#287,#288);
#233=AXIS2_PLACEMENT_3D('',#354,#289,#290);
#234=AXIS2_PLACEMENT_3D('',#355,#291,#292);
#235=AXIS2_PLACEMENT_3D('',#357,#293,#294);
#236=AXIS2_PLACEMENT_3D('',#359,#295,#296);
#237=AXIS2_PLACEMENT_3D('',#360,#297,#298);
#238=AXIS2_PLACEMENT_3D('',#362,#299,#300);
#239=AXIS2_PLACEMENT_3D('',#363,#301,#302);
#240=AXIS2_PLACEMENT_3D('',#365,#303,#304);
#241=AXIS2_PLACEMENT_3D('',#366,#305,#306);
#242=AXIS2_PLACEMENT_3D('',#367,#307,#308);
#243=AXIS2_PLACEMENT_3D('',#369,#309,#310);
#244=AXIS2_PLACEMENT_3D('',#370,#311,#312);
#245=AXIS2_PLACEMENT_3D('',#372,#313,#314);
#246=AXIS2_PLACEMENT_3D('',#373,#315,#316);
#247=AXIS2_PLACEMENT_3D('',#375,#317,#318);
#248=AXIS2_PLACEMENT_3D('',#376,#319,#320);
#249=AXIS2_PLACEMENT_3D('',#378,#321,#322);
#250=AXIS2_PLACEMENT_3D('',#379,#323,#324);
#251=DIRECTION('axis',(0.,0.,1.));
#252=DIRECTION('refdir',(1.,0.,0.));
#253=DIRECTION('center_axis',(1.,0.,0.));
#254=DIRECTION('ref_axis',(0.,0.,-1.));
#255=DIRECTION('center_axis',(1.,0.,0.));
#256=DIRECTION('ref_axis',(0.,-1.,1.83697019872103E-016));
#257=DIRECTION('center_axis',(-1.,0.,0.));
#258=DIRECTION('ref_axis',(0.,-1.,3.06161699786838E-017));
#259=DIRECTION('center_axis',(-1.,0.,0.));
#260=DIRECTION('ref_axis',(0.,1.,0.));
#261=DIRECTION('center_axis',(1.,0.,0.));
#262=DIRECTION('ref_axis',(0.,-1.,3.06161699786838E-017));
#263=DIRECTION('center_axis',(1.,0.,0.));
#264=DIRECTION('ref_axis',(0.,1.,0.));
#265=DIRECTION('center_axis',(1.,0.,0.));
#266=DIRECTION('ref_axis',(0.,0.,-1.));
#267=DIRECTION('center_axis',(1.,0.,0.));
#268=DIRECTION('ref_axis',(0.,0.,-1.));
#269=DIRECTION('center_axis',(-1.,0.,0.));
#270=DIRECTION('ref_axis',(0.,-1.,1.83697019872103E-016));
#271=DIRECTION('center_axis',(1.,0.,0.));
#272=DIRECTION('ref_axis',(0.,1.,0.));
#273=DIRECTION('center_axis',(1.,0.,0.));
#274=DIRECTION('ref_axis',(0.,-1.,1.83697019872103E-016));
#275=DIRECTION('center_axis',(1.,0.,0.));
#276=DIRECTION('ref_axis',(0.,0.,-1.));
#277=DIRECTION('center_axis',(-1.,0.,0.));
#278=DIRECTION('ref_axis',(0.,-1.,3.06161699786838E-017));
#279=DIRECTION('center_axis',(1.,0.,0.));
#280=DIRECTION('ref_axis',(0.,1.,0.));
#281=DIRECTION('center_axis',(1.,0.,0.));
#282=DIRECTION('ref_axis',(0.,-1.,3.06161699786838E-017));
#283=DIRECTION('center_axis',(1.,0.,0.));
#284=DIRECTION('ref_axis',(0.,0.,-1.));
#285=DIRECTION('center_axis',(-1.,0.,0.));
#286=DIRECTION('ref_axis',(0.,-1.,1.83697019872103E-016));
#287=DIRECTION('center_axis',(1.,0.,0.));
#288=DIRECTION('ref_axis',(0.,1.,0.));
#289=DIRECTION('center_axis',(1.,0.,0.));
#290=DIRECTION('ref_axis',(0.,-1.,1.83697019872103E-016));
#291=DIRECTION('center_axis',(1.,0.,0.));
#292=DIRECTION('ref_axis',(0.,0.,-1.));
#293=DIRECTION('center_axis',(1.,0.,0.));
#294=DIRECTION('ref_axis',(0.,-1.,1.83697019872103E-016));
#295=DIRECTION('center_axis',(-1.,0.,0.));
#296=DIRECTION('ref_axis',(0.,-1.,3.06161699786838E-017));
#297=DIRECTION('center_axis',(1.,0.,0.));
#298=DIRECTION('ref_axis',(0.,0.,-1.));
#299=DIRECTION('center_axis',(-1.,0.,0.));
#300=DIRECTION('ref_axis',(0.,-1.,1.83697019872103E-016));
#301=DIRECTION('center_axis',(1.,0.,0.));
#302=DIRECTION('ref_axis',(0.,1.,0.));
#303=DIRECTION('center_axis',(1.,0.,0.));
#304=DIRECTION('ref_axis',(0.,0.,-1.));
#305=DIRECTION('center_axis',(1.,0.,0.));
#306=DIRECTION('ref_axis',(0.,0.,-1.));
#307=DIRECTION('center_axis',(-1.,0.,0.));
#308=DIRECTION('ref_axis',(0.,0.,1.));
#309=DIRECTION('center_axis',(1.,0.,0.));
#310=DIRECTION('ref_axis',(0.,0.,-1.));
#311=DIRECTION('center_axis',(1.,0.,0.));
#312=DIRECTION('ref_axis',(0.,1.,0.));
#313=DIRECTION('center_axis',(1.,0.,0.));
#314=DIRECTION('ref_axis',(0.,0.,-1.));
#315=DIRECTION('center_axis',(1.,0.,0.));
#316=DIRECTION('ref_axis',(0.,0.,-1.));
#317=DIRECTION('center_axis',(1.,0.,0.));
#318=DIRECTION('ref_axis',(0.,0.,-1.));
#319=DIRECTION('center_axis',(-1.,0.,0.));
#320=DIRECTION('ref_axis',(0.,1.,0.));
#321=DIRECTION('center_axis',(1.,0.,0.));
#322=DIRECTION('ref_axis',(0.,0.,-1.));
#323=DIRECTION('center_axis',(-1.,0.,0.));
#324=DIRECTION('ref_axis',(0.,0.,1.));
#325=CARTESIAN_POINT('',(0.,0.,0.));
#326=CARTESIAN_POINT('Origin',(0.101496886926854,0.,0.));
#327=CARTESIAN_POINT('',(0.101496886926854,1.7895,-1.09575272353709E-016));
#328=CARTESIAN_POINT('Origin',(0.101496886926854,0.,0.));
#329=CARTESIAN_POINT('',(0.115592276238643,1.77963030214988,-5.44854638298373E-016));
#330=CARTESIAN_POINT('Origin',(0.115592276238643,0.,-2.72427319149187E-016));
#331=CARTESIAN_POINT('Origin',(0.144302358291125,0.,0.));
#332=CARTESIAN_POINT('',(0.165827887866322,1.64160909355034,-1.00519566093381E-016));
#333=CARTESIAN_POINT('Origin',(0.165827887866322,0.,-2.51298915233452E-016));
#334=CARTESIAN_POINT('Origin',(0.056,0.,0.));
#335=CARTESIAN_POINT('',(2.18547839493141E-017,1.7895,0.));
#336=CARTESIAN_POINT('Origin',(2.18547839493141E-017,0.,0.));
#337=CARTESIAN_POINT('Origin',(0.208114055801688,0.,0.));
#338=CARTESIAN_POINT('',(0.208114055801688,1.612,-4.93532660056383E-016));
#339=CARTESIAN_POINT('Origin',(0.208114055801688,0.,0.));
#340=CARTESIAN_POINT('Origin',(0.301604716582251,0.,0.));
#341=CARTESIAN_POINT('',(0.401865467626398,1.612,-9.87065320112766E-017));
#342=CARTESIAN_POINT('Origin',(0.401865467626398,0.,0.));
#343=CARTESIAN_POINT('Origin',(0.401865467626398,0.,0.));
#344=CARTESIAN_POINT('',(0.444154476470473,1.6294366386315,-4.98871090978371E-016));
#345=CARTESIAN_POINT('Origin',(0.444154476470473,0.,-2.49435545489186E-016));
#346=CARTESIAN_POINT('Origin',(0.496052358291125,0.,0.));
#347=CARTESIAN_POINT('',(0.547950240111778,1.7325633613685,-1.06088908740996E-016));
#348=CARTESIAN_POINT('Origin',(0.547950240111778,0.,-2.6522227185249E-016));
#349=CARTESIAN_POINT('Origin',(0.590239248955852,0.,0.));
#350=CARTESIAN_POINT('',(0.590239248955852,1.75,-5.35782974626967E-016));
#351=CARTESIAN_POINT('Origin',(0.590239248955852,0.,0.));
#352=CARTESIAN_POINT('Origin',(0.84525,0.,0.));
#353=CARTESIAN_POINT('',(1.12,1.75,-1.07156594925393E-016));
#354=CARTESIAN_POINT('Origin',(1.12,0.,0.));
#355=CARTESIAN_POINT('Origin',(1.12,0.,0.));
#356=CARTESIAN_POINT('',(1.125,1.63420788859573,-1.00066372995506E-016));
#357=CARTESIAN_POINT('Origin',(1.125,0.,0.));
#358=CARTESIAN_POINT('',(1.12085393361768,1.62928134849373,-4.98823547085833E-016));
#359=CARTESIAN_POINT('Origin',(1.12085393361768,0.,-2.49411773542916E-016));
#360=CARTESIAN_POINT('Origin',(1.125,1.63,0.));
#361=CARTESIAN_POINT('',(1.125,1.745,-5.34252166128033E-016));
#362=CARTESIAN_POINT('Origin',(1.125,0.,0.));
#363=CARTESIAN_POINT('Origin',(0.5625,0.,0.));
#364=CARTESIAN_POINT('',(0.,1.435,0.));
#365=CARTESIAN_POINT('Origin',(0.,0.,0.));
#366=CARTESIAN_POINT('Origin',(1.12,0.,0.));
#367=CARTESIAN_POINT('Origin',(0.,1.5826494652026,0.));
#368=CARTESIAN_POINT('',(0.,1.5826494652026,0.));
#369=CARTESIAN_POINT('Origin',(0.,0.,0.));
#370=CARTESIAN_POINT('Origin',(0.0171821815194979,0.,0.));
#371=CARTESIAN_POINT('',(0.0343643630389958,1.59723627188774,0.));
#372=CARTESIAN_POINT('Origin',(0.0343643630389958,0.,0.));
#373=CARTESIAN_POINT('Origin',(0.016,0.,0.));
#374=CARTESIAN_POINT('',(0.0343643630389958,1.68376372811226,0.));
#375=CARTESIAN_POINT('Origin',(0.0343643630389958,0.,0.));
#376=CARTESIAN_POINT('Origin',(0.0171821815194979,0.,0.));
#377=CARTESIAN_POINT('',(0.,1.6983505347974,0.));
#378=CARTESIAN_POINT('Origin',(0.,0.,0.));
#379=CARTESIAN_POINT('Origin',(2.18547839493141E-017,1.7895,0.));
#380=UNCERTAINTY_MEASURE_WITH_UNIT(LENGTH_MEASURE(0.000393700787401575),
#384,'DISTANCE_ACCURACY_VALUE',
'Maximum model space distance between geometric entities at asserted c
onnectivities');
#381=UNCERTAINTY_MEASURE_WITH_UNIT(LENGTH_MEASURE(1.E-006),#385,
'DISTANCE_ACCURACY_VALUE',
'Maximum model space distance between geometric entities at asserted c
onnectivities');
#382=(
GEOMETRIC_REPRESENTATION_CONTEXT(3)
GLOBAL_UNCERTAINTY_ASSIGNED_CONTEXT((#380))
GLOBAL_UNIT_ASSIGNED_CONTEXT((#384,#390,#387))
REPRESENTATION_CONTEXT('','3D')
);
#383=(
GEOMETRIC_REPRESENTATION_CONTEXT(3)
GLOBAL_UNCERTAINTY_ASSIGNED_CONTEXT((#381))
GLOBAL_UNIT_ASSIGNED_CONTEXT((#385,#390,#387))
REPRESENTATION_CONTEXT('','3D')
);
#384=(
CONVERSION_BASED_UNIT('__CONSTANT UNIT inch',#386)
LENGTH_UNIT()
NAMED_UNIT(#389)
);
#385=(
LENGTH_UNIT()
NAMED_UNIT(*)
SI_UNIT(.MILLI.,.METRE.)
);
#386=LENGTH_MEASURE_WITH_UNIT(LENGTH_MEASURE(25.4),#385);
#387=(
NAMED_UNIT(*)
SI_UNIT($,.STERADIAN.)
SOLID_ANGLE_UNIT()
);
#388=DIMENSIONAL_EXPONENTS(0.,0.,0.,0.,0.,0.,0.);
#389=DIMENSIONAL_EXPONENTS(1.,0.,0.,0.,0.,0.,0.);
#390=(
CONVERSION_BASED_UNIT('degree',#392)
NAMED_UNIT(#388)
PLANE_ANGLE_UNIT()
);
#391=(
NAMED_UNIT(*)
PLANE_ANGLE_UNIT()
SI_UNIT($,.RADIAN.)
);
#392=PLANE_ANGLE_MEASURE_WITH_UNIT(PLANE_ANGLE_MEASURE(0.01745329252),#391);
#393=SHAPE_DEFINITION_REPRESENTATION(#394,#395);
#394=PRODUCT_DEFINITION_SHAPE('',$,#397);
#395=SHAPE_REPRESENTATION('',(#214),#382);
#396=PRODUCT_DEFINITION_CONTEXT('part definition',#401,'design');
#397=PRODUCT_DEFINITION('19MPX-3','19MPX-3',#398,#396);
#398=PRODUCT_DEFINITION_FORMATION('',$,#403);
#399=PRODUCT_RELATED_PRODUCT_CATEGORY('19MPX-3','19MPX-3',(#403));
#400=APPLICATION_PROTOCOL_DEFINITION('international standard',
'automotive_design',2009,#401);
#401=APPLICATION_CONTEXT(
'Core Data for Automotive Mechanical Design Process');
#402=PRODUCT_CONTEXT('part definition',#401,'mechanical');
#403=PRODUCT('19MPX-3','19MPX-3',$,(#402));
#404=PRESENTATION_STYLE_ASSIGNMENT((#405));
#405=SURFACE_STYLE_USAGE(.BOTH.,#406);
#406=SURFACE_SIDE_STYLE($,(#407));
#407=SURFACE_STYLE_FILL_AREA(#408);
#408=FILL_AREA_STYLE($,(#409));
#409=FILL_AREA_STYLE_COLOUR($,#410);
#410=COLOUR_RGB('',0.749019607843137,0.749019607843137,0.749019607843137);
ENDSEC;
END-ISO-10303-21;
